PrimaNota.ru - самый крупный в мире бесплатный архив песенных текстов, аккордов, табулатур и нот


Bouncing Souls - Manthem - аккорды и текст, таба, бас-таба, видео

Регистрация Запомнить меня
Войти через:  Facebook Google Twitter Vk Yandex Mail.ru

Bouncing Souls - Manthem - аккорды и текст, таба, бас-таба, видео

Печатать
Просмотров: 296
Авторы: The Bouncing Souls

Manthem
Bouncing Souls
		   Intro
E|-------------------------
A|-3-----------------------
D|-------------------------
G|-------------------------
B|-------------------------
E|-------------------------


Chrous
E|-----------------------|-----------------------|------------------------|
B|-----------------------|-----------------------|------------------------|
G|-7777-------------7----|--7777------7777-------|--7777------------------|
D|-7777-5555-777777-7-7--|--7777-5555-7777-7777--|--7777-5555-77777777----|
A|-5555-5555-777777-5-7--|--5555-5555-5555-7777--|--5555-5555-77777777----|
E|------3333-555555---5--|-------3333------5555--|-------3333-55555555----|
 |     play 2x           |      play 1x          |     play 1x            |


Verse
E|-----------------------|-----------------------|
B|-----------------------|-----------------------|
G|-7777------------------|--7--------------------|
D|-7777-5555-77777777----|--7-5-7----------------|
A|-5555-5555-77777777----|--5-5-7----------------|
E|------3333-55555555----|----3-5----------------|
 |     play 3x           |      play 2x          |


Intro
Chrous
Intro
Chrous
let play bass the bassline then start with the intro (hear the song to figure it out)
Verse
Chorus
Verse (the 2nd part)
Verse (1st part) 2x
Intro


More Tabs? e-Mail me: d.b182@web.de
please go to: http://www.green-t.de.vu     
Добавлено: 08.06.2013
Другие материалы по этой песне:

Страница создана 21.03.2012
http://primanota.ru/bouncing-souls/manthem-chords.htm
Привет, Гость.
Предлагаем пройти революционный курс по гитаре.
Подарок от PrimaNota.Ru, забирай!