PrimaNota.ru - самый крупный в мире бесплатный архив песенных текстов, аккордов, табулатур и нот


Bouncing Souls - Bryan's Lament - текст песни, бас-таба, видео

Регистрация Запомнить меня
Войти через:  Facebook Google Twitter Vk Yandex Mail.ru

Bouncing Souls - Bryan's Lament - текст песни, бас-таба, видео

Печатать
Просмотров: 88
----------------------------------------------------------------------------
			     Bryan's Lament - Bouncing Souls
----------------------------------------------------------------------------

Tabbed By : xnighttrainx	 
e-mail: agent_0range182@yahoo.com

Tuning: Standard

Intro
G|-------------------------------------------------------------------------|
D|-5/12----5-7-5-0---------------------------------------------------------|
A|-------------------------------------------------------------------------|
E|-------------------------------------------------------------------------|

Verse x2
G|-------------------------------------------------------------------------|
D|-------------------------------------------------------------------------|
A|-55555555------------55555555--------------------------------------------|
E|----------5555-3333-----------3333-5555----------------------------------|

G|-------------------------------------------------------------------------|
D|-------------------------------------------------------------------------|
A|-55555555-----------55555555------5555-----------------------------------|
E|----------5555-3333----------5555----------------------------------------|

Chorus / Bridge Pt 1
G|-------------------------------------------------------------------------|
D|-------------------------------------------------------------------------|
A|-5555555555555555--------------------------------------------------------|
E|------------------5555555555555555-7777777777777777-33333333333-555555555|

Bridge Pt 2 x2
G|-------------------------------------------------------------------------|
D|----------4-5-77-5-4----------4-5-77-5-4---------------------------------|
A|-55555555------------00000000------------22222222223322------------------|
E|--------------------------------------------------------33333333-55555555|

Bridge pt 3 x1
G|--------------------------------------------------------7--7----9---9----|
D|-----------------------------------------------------55--5---77---7------|
A|-5555555555555555--------------------------------------------------------|
E|------------------5555555555555555-7777777777777777----------------------|

Order:
Intro x1
Verse x2
Chorus x1
Bridge pt 1 x1
Bridge pt 2 x2
Bridge pt 3 x1
Chorus x2
End on A-5~


| /  slide up
| \  slide down
| h  hammer-on
| p  pull-off
| ~  vibrato
| +  harmonic
| x  Mute note
============================================================================
Добавлено: 15.02.2014
Другие материалы по этой песне:
  • Аккорды и текст

Страница создана 25.02.2012
http://primanota.ru/bouncing-souls/bryans-lament-chords.htm
Привет, Гость.
Предлагаем пройти революционный курс по гитаре.
Подарок от PrimaNota.Ru, забирай!