PrimaNota.ru - самый крупный в мире бесплатный архив песенных текстов, аккордов, табулатур и нот


Bouncing Souls - Better Days - текст песни, таба, видео

Регистрация Запомнить меня
Войти через:  Facebook Google Twitter Vk Yandex Mail.ru

Bouncing Souls - Better Days - текст песни, таба, видео

Печатать
Просмотров: 123
Band: Bouncing Souls
Song: Better Days
Album: Anchors Away
Tabber: clark@theoddmenout.com

*= mute note/chord

Riff 1:
e--------------------------------------------------------------------------|
B-----6-------6--6------6-------6--6------5-------5--5------6-------6--6---|
G-7-7---7-7-7----7--3-3---3-3-3----3--5-5---5-5-5----5--7-7---7-7-7----7---|
D--------------------------------------------------------------------------|
A--------------------------------------------------------------------------|
E--------------------------------------------------------------------------|
  * *   * * *       * *   * * *       * *   * * *       * *   * * *  
Riff 2:
e--------------------------------------------------|
B--6--6-6-6-6--6--6-6-6-6--5--5-5-5-5--6--6-6-6-6--|
G--7--7-7-7-7--3--3-3-3-3--5--5-5-5-5--7--7-7-7-7--|
D--------------------------------------------------|
A--------------------------------------------------|
E--------------------------------------------------|

D,Bb,C,D x4

Verse 1:
D*          Bb*               C*          D*
What do you do when she won't love you anymore?
D           Bb                C           D
What do you do when she won't hold you anymore?
D*        Bb*              C*         D*
Living in sin, now you're all alone again
D     Bb       C         D
She's having a change of heart
D         Bb        C           D
Without a word everything just falls apart

D,Bb,C,D x2

Verse 2:
D*          Bb*               C*          D*
What do you do when she won't love you anymore?
D           Bb                C           D
What do you do when she won't hold you anymore?
D*        Bb*              C*    D*
To lovers walking through life together
D      Bb                C                 D
Tender kisses of all the sweet things they used to say
D    Bb       C      D     D,Bb,C,D
Memories from better days...
D    Bb       C      D     
Memories from better days...

D,Bb,C,D x2

Bridge: (play Riff 1 and then Riff 2, but I'll include the root notes too)
(D)           (Bb)  (C)             (D)
Everything we built, everything that I believed...
(D)     (Bb)          (C)     (D)
Just some old fashioned fantasy

Riff 3:
e--0--0-0-0-0--0--0-0-0-0--0--0-0-0-0--0--0-0-0--|
B--6--6-6-6-6--3--3-3-5-6--5--5-5-5-5--6--6-6-6--|
G--7--7-7-7-7--3--3-3-3-3--5--5-5-5-5--7--7-7-7--| x4
D------------------------------------------------|
A------------------------------------------------|
E------------------------------------------------|

Riff 4:
e--0--0-0-0-0--0--0-0-0-0--0-0-0-0-0--0--0-0-0---|
B--3--3-3-3-3--6--6-6-6-6--5-5-5h6p5--3--3-3-3---| x2
G------------------------------------------------|
D------------------------------------------------|
A------------------------------------------------|
E------------------------------------------------|
That's it! For suggestions, corrections, and requests email me: oddmenout4@yahoo.com.
Go to my band's site: www.theoddmenout.com
Добавлено: 07.11.2013
Другие материалы по этой песне:
  • Аккорды и текст

Страница создана 29.04.2012
http://primanota.ru/bouncing-souls/better-days-chords.htm
Привет, Гость.
Предлагаем пройти революционный курс по гитаре.
Подарок от PrimaNota.Ru, забирай!