PrimaNota.ru - самый крупный в мире бесплатный архив песенных текстов, аккордов, табулатур и нот


Bouncing Souls - Apartment F5 - таба, бас-таба, видео

Регистрация Запомнить меня
Войти через:  Facebook Google Twitter Vk Yandex Mail.ru

Bouncing Souls - Apartment F5 - таба, бас-таба, видео

Печатать
Просмотров: 85
Band: Bouncing Souls
Song: Apartment 5F
Album: Anchors Away
Tabber: clark@theoddmenout.com

Intro:
e-----|
B-----|
G-----| This is after the bass goes one time
D-2~--|
A-2~--|
E-0~--|

(Bass part x2)
G|-----------------------------------------------|
D|-----------------------------------------------|Bass continues during 
A|-----------------------------9-9-9-9-----------|guitar riff
E|-0-0-0-0-0-7-7-7-7-7-5-5-7-7-------------------|

Guitar Riff 1 x4
e|-0-0-0-0-0-0-0-0-0-0-0-0-0-0-0-0-0-0---|
B|-5-5-5-5-5-4-4-5-5-10-10-9-7-5-5-5-5---|
G|---------------------------------------|
D|---------------------------------------|
A|---------------------------------------|
E|---------------------------------------|

Verse 1:
eii         B                 A       B   eii
Jackhammers outside my window woke me up again today
eii              B            A           B       eii
And those voices in my head, well it's so hard to make them go away
eii     B              A            B        eii             
Stayin' out all night, looking for something I'll never find
eii          B            A        B     eii
I'm fighting with myself, and I'm losing control of my mind

Chorus:
A B        eii
 I reached out in anger
A B        eii
 I reached out in love
A          B       eii
 I lived a life of self-abuse
A  B              eii
 I prayed to the heavens above

Verse 2:
eii         B                 A       B   eii
Jackhammers outside my window woke me up again today
eii        B           A           B       eii
And those in my head, well it's so hard to make them go away
eii                  B            A          B            eii
Lookin' for some new stimulation, but all of these things they never last
eii                   B        A      B          eii
I know I have to move forward, but I keep holding on to the past

Chorus 2:
A B      eii          A B       eii
 I just wanna be happy with the way things are
A       B          eii              A         B       eii         
 I just wanna look up at the sky at night and apprechiate the stars

Bass riff x2 (on the second time do this )

e|-0-0-0-0-0-0-0-0-0-0-0-0-0-0-0-0-0-----|
B|-5-5-5-5-5-5-5-5-5-5-5-5-5-5-5-5-5-----|
G|---------------------------------------|
D|---------------------------------------|
A|---------------------------------------|
E|---------------------------------------|
Bridge:
E            B              A    B   eii
Destruction leaves an empty space
E       B          A    B      eii
In emptiness again, I begin to create
E       B             A  B      eii   
Feeling good again now, in some  new kind of way
E       B            A  B   eii
Feeling good again now

eii
Добавлено: 15.07.2013
Другие материалы по этой песне:
  • Аккорды и текст

Страница создана 15.07.2013
http://primanota.ru/bouncing-souls/apartment-f5-chords.htm
Привет, Гость.
Предлагаем пройти революционный курс по гитаре.
Подарок от PrimaNota.Ru, забирай!