PrimaNota.ru - самый крупный в мире бесплатный архив песенных текстов, аккордов, табулатур и нот


Boulevard - Need You Tonight - таба, видео

Регистрация Запомнить меня
Войти через:  Facebook Google Twitter Vk Yandex Mail.ru

Boulevard - Need You Tonight - таба, видео

Печатать
Просмотров: 96
-------------------------------------------------------------------------------
                             Need you Tonight - Boulevard
-------------------------------------------------------------------------------
Tabbed by: Beanboy
Band Link - http://en.wikipedia.org/wiki/Boulevard_(band)
Album Link - http://heavyharmonies.com/cgi-bin/glamcd.cgi?BandNum=590&CDName=Into+the+Street
Video Link  - http://www.youtube.com/watch?v=x4jfeAuwDHc


Tuning: Standard

Intro
                                         upstroke
e|----3--0------3--0-0-------3--0-----3--0-----------------------------------|
B|----3--0------3--3--3------3--0-----3--3-----------------------------------|
G|----0--7------0--2---2-----0--7-----0--2-----------------------------------|
D|-2--0--7---2--0--0------2--0--7--2--0--------------------------------------|
A|-2--2--5---2--2---------2--2--5--2--2--------------------------------------|
E|-0--3------0--3---------0--3-----0--3--------------------------------------|

Intro solo

e|---------------------------------------------------------------------------|
B|-17~--15-17b19-b19r17-15----15------------------------15-17-17b19 b19------|
G|-------------------------16-----16-14~-------14~-12/17---------------------|
D|---------------------------------------14h16-------------------------------|
A|---------------------------------------------------------------------------|
E|---------------------------------------------------------------------------|

Under solo

e|---------------------------------------------------------------------------|
B|---------------------------------------------------------------------------|
G|---7------7-----------.----------------------------------------------------|
D|-9-7-7--9-7-7--5-5-7--99---------------------------------------------------|
A|-9-5-7--9-5-7--5-5-7--99---------------------------------------------------|
E|-7---5--7---5--3-3-5--77---------------------------------------------------|


Verse

                                                 
e|----0-----0--3--0--3--0--3--0----------------------------------------------|
B|----2-----2--0--2--0--2--0--2----------------------------------------------|
G|----2-----2--0--2--0--2--0--2---4------------------------------------------|
D|-2--2--2--2--0--2--0--2--0--2---4------------------------------------------|
A|-2--0--2--0--2--0--2--0--2--0---2------------------------------------------|
E|-0-----0-----3-----3-----3----0--------------------------------------------|


Chorus


e|---------------------------------------------------------------------------|
B|---------------------------------------------------------------------------|
G|---7------7-----------..---------------------------------------------------|
D|-9-7-7--9-7-7--5-5-7--999-7/9----------------------------------------------|
A|-9-5-7--9-5-7--5-5-7--999-7/9----------------------------------------------|
E|-7---5--7---5--3-3-5--777-5/7----------------------------------------------|

Verse

Chorus
                                                 first    second
e|---------------------|-------|-------------------|
B|---------------------|-------|-------------------|
G|---7------7----------|-------|-..----------------|
D|-9-7-7--9-7-7--5-5-7-|-5-5-7-|-999-7/9-----------|
A|-9-5-7--9-5-7--5-5-7-|-5-5-7-|-999-7/9-----------|
E|-7---5--7---5--3-3-5-|-3-3-5-|-777-5/7-----------|


Middle 8

e|-----0-----0--0-0---0--0-0-------------------------------------------------|
B|-----1-----1--1-3---1--1-3-------------------------------------------------|
G|-----0-----0--0-2-4-0--0-2-4-----------------------------------------------|
D|--2--2--2--2--2-0-4-2--2-0-4-----------------------------------------------|
A|--2--3--2--3--3---2-3--3---2-2---------------------------------------------|
E|--0-----0--------------------0---------------------------------------------|

Guitar solo (after sax solo!)

e|-----------14-15b17-15-14h15p14--------------15b17-15-17b19-b19-17-22b24~-----|
B|-17-17~-17----------------------17-15-17--------------------------------------|
G|-----------------------------------------12-----------------------------------|
D|------------------------------------------------------------------------------|
A|--------------------------------------------------------------------------2-2-|
E|--------------------------------------------------------------------------0-0-|

Chorus till end

e|----------------------------|
B|----------------------------|
G|---7------7-----------------|
D|-9-7-7--9-7-7--5-5-7--5-5-7-|
A|-9-5-7--9-5-7--5-5-7--5-5-7-|
E|-7---5--7---5--3-3-5--3-3-5-|






************************************

| /   slide up
| \   slide down
| h   hammer-on
| p   pull-off
| ~   vibrato
| +   harmonic
| x   Mute note
| b   Bend
| pb  Pre-bend
| br  Bend release
| pbr Pre-bend release
| brb Bend release bend
| .   Staccato

************************************
Добавлено: 16.07.2013
Другие материалы по этой песне:
  • Аккорды и текст

Страница создана 16.07.2013
http://primanota.ru/boulevard/need-you-tonight-chords.htm
Привет, Гость.
Предлагаем пройти революционный курс по гитаре.
Подарок от PrimaNota.Ru, забирай!