PrimaNota.ru - самый крупный в мире бесплатный архив песенных текстов, аккордов, табулатур и нот


Boudewijn De Groot - Nee Meeuw - аккорды и текст, видео

Регистрация Запомнить меня
Войти через:  Facebook Google Twitter Vk Yandex Mail.ru

Boudewijn De Groot - Nee Meeuw - аккорды и текст, видео

Печатать
Просмотров: 144
Nee Meeuw
Boudewijn De Groot
Boudewijn de Groot - Nee Meeuw

CAPO III

INTRO (dit tokkelritme wordt ook tijdens de coupletten gespeeld)
   A       Asus4   A       Asus2   A       Asus2   A       Asus4
e|-0--0------------------------------------------------------------|
B|---------3--3----2--2----0--0------------0--0----2--2----3--3----|
G|------2-------2-------2-------2--2--2-2-------2-------2-------2--|
D|---2---2---2---2---2---2---2---2---2---2---2---2---2---2---2---2-|
A|-0---0---0---0---0---0---0---0---0---0---0---0---0---0---0---0---|
E|-----------------------------------------------------------------|
   
   A
e|-0-------0-------0-------0-------|
B|----2-------2-------2-------2----|
G|------2-------2-------2-------2--|
D|---2---2---2---2---2---2---2---2-|
A|-0---0---0---0---0---0---0---0---|
E|---------------------------------|

VERSE 1
A            Asus4
Handel maar, wandel maar
    A          Asus2
Jij vrije weggebruiker
A  Asus2
A  Asus4
     A                   Asus4
Maar laat mijn kind zijn speelgoedhuis
    A               Asus2
Van koek en kleurig suiker
A  Asus2
A  Asus4
    A                D
Nee meeuw, ik wil je wieken niet
   A
Je vrijheid niet
     E             A
Want heel je hemel liegt

   A
e|-0-------0-------0-------0-------|
B|----2-------2-------2-------2----|
G|------2-------2-------2-------2--|
D|---2---2---2---2---2---2---2---2-|
A|-0---0---0---0---0---0---0---0---|
E|---------------------------------|

VERSE 2
   A                   Asus4
Je taal is glinsterend als een aal
    A               Asus2
Vol gladde zilveren woorden
A  Asus2
A  Asus4
   A                Asus4
En kijk: ze trekken allemaal
    A                   Asus2
Een slijmerig spoor van moorden
A  Asus2
A  Asus4
    A                D
Nee meeuw, ik wil je wieken niet
   A
Je vrijheid niet
     E             A
Want heel je hemel liegt

   A
e|-0-------0-------0-------0-------|
B|----2-------2-------2-------2----|
G|------2-------2-------2-------2--|
D|---2---2---2---2---2---2---2---2-|
A|-0---0---0---0---0---0---0---0---|
E|---------------------------------|

VERSE 3
A                Asus4
Hef het glas met wijn, rood
       A                Asus2
Van de dood van jood en neger
A  Asus2
A  Asus4
A                 Asus4
Lest de glans van dit karmijn
   A                 Asus2
De dorst niet van je leger?
A  Asus2
A  Asus4
    A                D
Nee meeuw, ik wil je wieken niet
   A
Je vrijheid niet
     E             A
Want heel je hemel liegt

   A
e|-0-------0-------0-------0-------|
B|----2-------2-------2-------2----|
G|------2-------2-------2-------2--|
D|---2---2---2---2---2---2---2---2-|
A|-0---0---0---0---0---0---0---0---|
E|---------------------------------|

VERSE 4
    A                Asus4
Dit spel dat ooit op dekens
      A               Asus2
Om soldaten van zacht tin ging
A  Asus2
A  Asus4
   A                   Asus4
De dood zweept als een kinderhand
     A           Asus2
Naar dood of overwinning
A  Asus2
A  Asus4
    A                D
Nee meeuw, ik wil je wieken niet
   A
Je vrijheid niet
     E             A
Want heel je hemel liegt

   A
e|-0-------0-------0-------0-------|
B|----2-------2-------2-------2----|
G|------2-------2-------2-------2--|
D|---2---2---2---2---2---2---2---2-|
A|-0---0---0---0---0---0---0---0---|
E|---------------------------------|

SOLO
   A       Asus4   A       Asus2   A       Asus2   A       Asus4
e|-0--0-----------------------0------------------------------------|
B|---------3--3----2--2----0---------------0--0----2--2----3--2-3--|
G|------2-------2-------2-------2--2--2-2-------2-------2----------|
D|---2---2---2---2---2---2---2---2---2---2---2---2---2---2---2---2-|
A|-0---0---0---0---0---0---0---0---0---0---0---0---0---0---0---0---|
E|-----------------------------------------------------------------|
   
   Asus4                           E               
e|-0-------0-------0-------0-------0-------0-------0---------------|
B|----0-------0-------0-------0-------0-------0--------3---2--0----|
G|------2-------2-------2-------2----------------------------------|
D|---2---2---2---2---2---2---2---2------2-------2----2---2---2--2--|
A|-0---0---0---0---0---0---0---0-----2---2---2---2-----------------|
E|---------------------------------0---0---0---0---0---0---0---0---|

   A
e|-0-------0-------0-------0-------|
B|----2-------2-------2-------2----|
G|------2-------2-------2-------2--|
D|---2---2---2---2---2---2---2---2-|
A|-0---0---0---0---0---0---0---0---|
E|---------------------------------|

VERSE 5
    A               Asus4
Vietnam, zo heet je nieuwste spel
   A               Asus2
Je zet je zwartste stukken in
A  Asus2
A  Asus4
   A               Asus4
En ik vergeet mijn dromen wel
   A              Asus2
Terwijl ik mijn geluk verzin
A  Asus2
A  Asus4
  A                D
O meeuw, ik wil je wieken niet
   A
Je vrijheid niet
  E             A
Zolang je hemel liegt

OUTRO
   A
e|-0-------0-------0-------0-------0-------------------|
B|----2-------2-------2-------2--------3---2---0---2---|
G|------2-------2-------2-------2------------------2---|
D|---2---2---2---2---2---2---2---2---2---2---2---2-2---|
A|-0---0---0---0---0---0---0---0---0---0---0---0---0---|
E|-----------------------------------------------------|
Добавлено: 24.05.2015
Другие материалы по этой песне:
  • Аккорды и текст

Страница создана 24.05.2015
http://primanota.ru/boudewijn-de-groot/nee-meeuw-chords.htm
Привет, Гость.
Предлагаем пройти революционный курс по гитаре.
Подарок от PrimaNota.Ru, забирай!