PrimaNota.ru - самый крупный в мире бесплатный архив песенных текстов, аккордов, табулатур и нот


Boudewijn De Groot - Kinderballade - таба, видео

Регистрация Запомнить меня
Войти через:  Facebook Google Twitter Vk Yandex Mail.ru

Boudewijn De Groot - Kinderballade - таба, видео

Печатать
Просмотров: 133
Уроки эстрадного вокала в Санкт-Петербурге
-------------------------------------------------------------------------------------
                      KINDERBALLADE - Boudewijn de Groot
-------------------------------------------------------------------------------------
Tabbed by: thvdscheur
Email: thvdscheur@hotmail.com

Deze mooie ballade is vrij makkelijk te spelen. Alle noten zijn van gelijke lengte,
ook als er maar vier in een maat staan, op een uitzondering na halverwege en aan het
einde van het tussenstuk. De spaties zijn om de tekst zoveel mogelijk onder de
bijbehorende noten te krijgen. De drie punten in de tekst geven aan welk deel van de
tab herhaald moet worden voor het volgende couplet.

e-|-2-----2-3p2--------|-2-----2-3p2--------|-3-----3-3p2--------|-------0-0-----0----|
B-|---3---------3---3--|---3---------3---3--|---3----------3---3-|-3---------2--------|
G-|-----2---------2----|-----0---------0----|-----0----------0---|---0---------2------|
D-|-0-------0----------|--------------------|--------------------|-----0--------------|
A-|--------------------|-3-------3----------|-2-------2----------|-1-------0----------|
E-|--------------------|--------------------|--------------------|--------------------|

e-|-----2-----3p2-0h2--|-----2-----2-----------|------------2-------2------|
B-|-----3-------------3|-----3-------3---------|---------------3------3----|
G-|---2---2------------|---2---2---------2-----|--------2---------2------2-|
D-|-0-------0----------|-0-------0-------------|-0-------------------------|
A-|--------------------|-----------------------|---------------------------|
E-|--------------------|-----------------------|---------------------------|
                                     Hij was...  twaalf had rappe leden, jongen

e-|-------------0----------------|------------0-----------------|---------0-------0---|
B-|---------3-------3----3-------|--------3-------3---------3---|-------3-----------2-|
G-|-----0--------------0------0--|---0----------------0-------0-|-----0---------2-----|
D-|------------------------------|------------------------------|---------------------|
A-|-3----------------------------|-2----------------------------|-1-----------0-------|
E-|------------------------------|------------------------------|---------------------|
    uit het Hof van Eden, als hij  lachte lachten luidkeels alle  leeuweriken mee, met z'n

e-|-------3p2--------0h2----------|---------0-------0---------|
B-|------------3---------3--------|------3-----3------------3-|
G-|-----2----------2-----------2--|---0-----------0-----------|
D-|-0-----------------------------|---------------------------|
A-|-------------------------------|-3-------------------------|
E-|-------------------------------|---------------------------|
    blikkering van tanden, met z'n marmerbleke handen, leek hij

e-|----------0--------0------|----------------|-----3p2-----0h2-----|
B-|--------3----3---------3--|-3--------2-----|---------3-------3---|
G-|----0----------0----------|-----0--------2-|---2-------2-------0-|
D-|--------------------------|----------------|-0-------------------|
A-|-2------------------------|-1--------0-----|---------------------|
E-|--------------------------|----------------|---------------------|
    op een tere engel uit een  sierlijk bal-masque.             Hij kon

e-|----------2-----------2------|----------------3------3-------|
B-|--------------2---------2----|------------------3------3-----|
G-|-------2------------2--------|-----------4---------4---------|
D-|----4------------------------|------5------------------------|
A-|-4---------------------------|-5-----------------------------|
E-|-----------------------------|-------------------------------|
    klaterhelder zingen,   en z'n haar rook naar seringen, o hij

e-|---------0h2--------2---------|---------------|-----0-----0-------|-------------|
B-|------------3-----------3-----|--------3------|-------2-----2-----|-0-----2-----|
G-|-----2--------2------------2--|----0--------0-|---2-----2-------0-|----0------2-|
D-|-0----------------------------|---------------|-------------------|-------------|
A-|------------------------------|-2-------------|-0-----------------|-------0-----|
E-|------------------------------|---------------|-------------------|-3-----------|
    was een waterprins die in z'n pak van goud la- mee,        was ontstegen aan de 

e-|-----3p2-----0h2-----|-----2-----2-----|-----3p2-----0h2-----|
B-|---------3-------3---|-------3-----3---|---------3-------3---|
G-|---2-------2-------2-|---2-----2-----2-|---2-------2-------2-|
D-|-0-------------------|-0---------------|-0-------------------|
A-|---------------------|-----------------|---------------------|
E-|---------------------|-----------------|---------------------|
    zee                                                     Zij was...

dertien, 'n gazelle,      en haar naam was Anabelle,
Anabelle noemde haar    zowel  de hinde als het ree,
met haar helderrode wangen, met haar glinsterende spangen
leek zij in haar gazen bruidsjurk 't meest nog op een toverfee.
Blauw wa-ren haar vreemde ogen,   blauw maar zonder mededogen, o ze
was een kleine meermin die maar   net van lieverlee,
was ontstegen aan de zee.                                   Samen.....

in het ochtendgloren      wandelden zij langs het koren
mild en zonder ze te            storen scheen het zonlicht naar benee
en on-der de roze stralen kuste hij haar lippen dralend
en hij zei haar wonderwoorden,  zelfs het gras luisterde mee.
Op het horen van die woorden    week voor hen gedwee het koren, en het

e-|---------2h3--2-------------|---------------|-------3---------|-------0--------0-|
B-|------3----------3------3---|-------------3-|-----0---0---0---|-----0--------2---|
G-|---2-----------------2------|---------0-----|---0-------0---0-|---0--------2-----|
D-|-0--------------------------|----0----------|-----------------|------------------|
A-|----------------------------|-2-------------|-----------------|----------0-------|
E-|----------------------------|---------------|-3-----------2---|-0----------------|
   lispelde wees welkom en bood doorgang aan de twee                            zoals

e-|-------------|-----0h2-----3p2-----|-----0h2-----0h2-3p2---|-------2-----2---|
B-|-0---------2-|---------3-------3---|---------3-----------3-|-----3---3-----3-|
G-|------0--2---|---2-------2-------2-|---2-------2-----------|---2-------2-----|
D-|-------------|-0-------------------|-0---------------------|-0---------------|
A-|---------0---|---------------------|-----------------------|-----------------|
E-|-3-----------|---------------------|-----------------------|-----------------|
    eens de Rode Zee.                   (INSTRUMENTAL)

e-|-------0---------|-------0---------|-------0-----0---|-----0h2-----2-----|
B-|-----3---3---3---|-----3---3---3---|-----3---------2-|---------3-----3---|
G-|---2-------2---2-|---0-------0---0-|---0-------2-----|---2-------2-----2-|
D-|-----------------|-----------------|-----------------|-0-----------------|
A-|-3---------------|-2---------------|-1-------0-------|-------------------|
E-|-----------------|-----------------|-----------------|-------------------|

e-|-------0---------|-------0---------|---------|-----0h2-----2-----|-----------------|
B-|-----3---3---3---|-----3---3---3---|-3---2---|---------3-----3---|-----3-------1---|
G-|---2-------2---2-|---0-------0---0-|---0---2-|---2-------2-----2-|---2---2---0---0-|
D-|-----------------|-----------------|---------|-0-----------------|-0---------------|
A-|-3---------------|-2---------------|-1---0---|-------------------|---------3-------|
E-|-----------------|-----------------|---------|-------------------|-----------------|

e-|------------------------------|------------------------------|
B-|-0--------0----0--------0-----|-1-----1-----1------1---------|
G-|-0--------0----0--------0-----|-0-----0-----0------0---------|
D-|------0------0------0------0--|----0----0--------0----0------|
A-|------------------------------|------------------------------|
E-|------------------------------|------------------------------|
    Toen hij op geblaf van honden  dagen later werd gevonden

e-|------------------------------|-0------0------0------0-------|-0--0-22-----2---|
B-|-3------3------3-------3------|-1------1------1------1-------|-1--1-33-----3---|
G-|-0------0------0-------0------|-0------0------2------2-------|-0--2-22---------|
D-|-----0------0--------0------0-|----2-----2-------2------2----|------00---0---0-|
A-|------------------------------|------------------------------|-3--0------------|
E-|------------------------------|------------------------------|-----------------|
    lag de blanke prins geschonden in het koren, zonder fee,

e-|-0-------0-----0----0---------|-2--------2--------2------2------|
B-|-1-------1-----1----1---------|-3--------3--------3------3------|
G-|-2-------2-----2----2---------|------2-------2---------2------2-|
D-|-----2------2----2----2-------|-0-------------------------------|
A-|-0----------------------------|---------------------------------|
E-|------------------------------|---------------------------------|
    met z'n grote dode ogen        keek hij roerloos naar omhoog en

e-|-3--------3-----3------0-------|-0---0------0----0----|-2---2---2---2---|
B-|-3--------3-----1------1-------|-1---1------1----1----|-3---3---3---3---|
G-|-----0-------0-----0---------0-|---0----0------0----0-|---2---2---2---2-|
D-|-------------------------------|----------------------|-0---------------|
A-|-------------------------------|-3--------------------|-----------------|
E-|-------------------------------|----------------------|-----------------|
    langzaam ritselde het bloed nog    uit een gruwelijke  snee - - - - - -

e-|-3---3---3---3---|-3-----------|-------0---------0--|-----------2--------2-------|
B-|-0---0---1---1---|-0-----------|-----2----2---3-----|--------------3---------3---|
G-|---0---0---0---0-|-0-----------|---2--------2-------|------2----------2--------2-|
D-|-----------------|-------------|--------------------|-0--------------------------|
A-|-----------------|-------------|-0------------------|----------------------------|
E-|-3---------------|-3-----------|--------------------|----------------------------|
    - - -                                        Niemand wist meer te vertellen hoezeer

e-|--------0-----0------------|--------0-----------0--------|
B-|----------3------3---------|------------3----------3-----|
G-|-----0------0--------0-----|---0------------0----------0-|
D-|---------------------------|-----------------------------|
A-|-3-------------------------|-2---------------------------|
E-|---------------------------|-----------------------------|
    kleine Anabelle     had ge- houden van haar engel uit het

e-|----------0-----|-----0-----0--------|----------------|-----2-----2---------|
B-|-3------------3-|-2-----2-----2------|-0------2-------|-------3-----3-------|
G-|----------------|---2-----2--------2-|---0----------2-|---2-----2-----2-----|
D-|-----0----------|--------------------|----------------|-0-------------------|
A-|-1--------------|-0------------------|--------0-------|---------------------|
E-|----------------|--------------------|-3--------------|---------------------|
    sierlijk bal-mas-que,        maar nog altijd ruist de  zee

e-|-----0-----0-----|-----0-----0-----|---------|-------0-3-2-0-----|-/-2-----|
B-|-------3-----3---|-------3-----3---|-3---2---|-----3---------3---|-\-3-----|
G-|---2-----2-----2-|---0-----0-----0-|---0---2-|---2---------------|-/-2-----|
D-|-----------------|-----------------|---------|-0-----------------|-\-0-----|
A-|-3---------------|-2---------------|-1---0---|-------------------|---------|
E-|-----------------|-----------------|---------|-------------------|---------|
Добавлено: 18.07.2012
Другие материалы по этой песне:
  • Аккорды и текст

Страница создана 18.07.2012
http://primanota.ru/boudewijn-de-groot/kinderballade-chords.htm
Привет, Гость.
Предлагаем пройти революционный курс по гитаре.
Подарок от PrimaNota.Ru, забирай!