PrimaNota.ru - самый крупный в мире бесплатный архив песенных текстов, аккордов, табулатур и нот


Boudewijn De Groot - Babylon - аккорды и текст, видео

Регистрация Запомнить меня
Войти через:  Facebook Google Twitter Vk Yandex Mail.ru

Boudewijn De Groot - Babylon - аккорды и текст, видео

Печатать
Просмотров: 45
Авторы: Boudewijn de Groot

Babylon
Boudewijn De Groot
Boudewijn de Groot - Babylon
song: https://www.youtube.com/watch?v=HpAjDQeYR1Q

INTRO (vanaf 0:38)
   G               D                       G
e|--------------------------------------------|
B|--------------------------------------------|
G|--------------------------------------------|
D|-5-5-5-5-5-0-----------2-----------2---0----|
A|-------------2-3-5-5-5---5---2-3-5---3---2--|
E|--------------------------------------------|

   Em      Am      C       D               G
e|--------------------------------------------|
B|--------------------------------------------|
G|-------------2------------------------------|
D|-2-2-2-2-2-4---5-4-5-4-2---2-4-2---2---0----|
A|-------------------------5-------5---3---2--|
E|--------------------------------------------|

   C                             G 
e|--------------------------------------------|
B|--------------------------------------------|
G|-------2------------------------------------|
D|-5-------5-4-2---5-----4-4-2-2--------------|
A|-------------------------------5------------|
E|--------------------------------------------|

   C       D       G
e|--------------------------------------------|
B|--------------------------------------------|
G|-----------------0-2-0----------------------|
D|-------2-------4----------------------------|
A|-----3---5-----0-2-3-2----------------------|
E|--------------------------------------------|

VERSE 1
G                             D                                       G
Meisjes wachten nachten op de god Sjalomon Ra, de draak bewaakt Ophelia
          C                         D                                           G
Die in de laan der leguanen, met jasmijn onder platanen, terugdenkt aan Antarctica
Em        Am             C              D       G
Helion verkracht daarna, voor mijn ogen Ariadne...
C        D       G
Zacht glazuur is Babylon

G   
G   Dsus4 D

VERSE 2
G                              D                                       G
Tempelgoud glanst helder in de stralen van de zon, daar rijst herboren Helion
C                          D                                              G
Door de gongen onderbroken spoort de zon in stroken voor de Tongenpoort omhoog
Em           Am     C            D          G
Helion doodt Oberon voor de ogen van Apollo...
C        D       G
Zacht glazuur is Babylon

G   
G   Dsus4 D

VERSE 3
G                               D/F#                                 G
Priesters heffen hoorns voor de witte stenen god, Elysee beweent het lot
        C                              D                                      G
Als het leger heeft gestreden, er zijn meesters overleden bij het eerste lentefeest
Em            Am       C            D           G
Helion speelt de bigot voor de ogen van Nemesis...
C        D       G
Zacht glazuur is Babylon

G   
G   Dsus4 D

VERSE 4
G                             D/F#         D/E                        G
Meisjes wachten nachten op de god Sjalomon Ra, de draak bewaakt Ophelia
          C                         D                                           G
Die in de laan der leguanen, met jasmijn onder platanen, terugdenkt aan Antarctica
Em        Am             C              D       G
Helion verkracht daarna, voor mijn ogen Ariadne...
C        D       G
Zacht glazuur is Babylon

G   
G   Dsus4 D

VERSE 5
G                              D                                       G
Tempelgoud glanst helder in de stralen van de zon, daar rijst herboren Helion
C                          D                                              G
Door de gongen onderbroken spoort de zon in stroken voor de Tongenpoort omhoog
Em           Am     C            D          G
Helion doodt Oberon voor de ogen van Apollo...
C        D       G
Zacht glazuur is Babylon
Добавлено: 08.06.2016
Другие материалы по этой песне:
  • Аккорды и текст

Страница создана 08.06.2016
http://primanota.ru/boudewijn-de-groot/babylon-chords.htm
Привет, Гость.
Предлагаем пройти революционный курс по гитаре.
Подарок от PrimaNota.Ru, забирай!