PrimaNota.ru - самый крупный в мире бесплатный архив песенных текстов, аккордов, табулатур и нот


Bots - Stop - таба, видео

Регистрация Запомнить меня
Войти через:  Facebook Google Twitter Vk Yandex Mail.ru

Bots - Stop - таба, видео

Печатать
Просмотров: 284
Уроки эстрадного вокала в Санкт-Петербурге
-----------------------------------------------------------------------------
                             Stop - The Bots
-----------------------------------------------------------------------------
Tabbed by:D. Fuller
E-mail:heyironhead@gmail.com

Tuning:EADGBe

e|-------------------------------------------------------------------------|
B|-------------------------------------------------------------------------|
G|-------------------------------------------------------------------------|
D|-----------9XX-12-121212------------9XX-12-121212-----------9XX-12-121212|
A|-9-XX-7-XX-7XX-10-101010--9-XX-7-XX-7XX-10-101010-9-XX-7-XX-7XX-10-101010|
E|-7-XX-5-XX----------------7-XX-5-XX---------------7-XX-5-XX--------------|

e|-------------------------------------------------------------------------|
B|-------------------------------------------------------------------------|
G|-------------------------------------------------------------------------|
D|-----------9XX-12-121212----------------------------------9XX-12-121212--|
A|-9-XX-7-XX-7XX-10-101010--9---------------------9-XX-7-XX-7XX-10-101010-9|
E|-7-XX-5-XX----------------7---------------------7-XX-5-XX---------------7|

e|-------------------------------------------------------------------------|
B|-------------------------------------------------------------------------|
G|-------------------------------------------------------------------------|
D|-----------9XX-12-121212----------------------------------9XX-12-121212--|
A|-9-XX-7-XX-7XX-10-101010--9---------------------9-XX-7-XX-7XX-10-101010-9|
E|-7-XX-5-XX----------------7---------------------7-XX-5-XX---------------7|

e|-------------------------------------------------------------------------|
B|-------------------------------------------------------------------------|
G|-------------------------------------------------------------------------|
D|-----------9XX-12-121212-------7-XX-9XX-12-121212------7-XX-9XX-12-121212|
A|-9-XX-7-XX-7XX-10-101010--9-XX-5-XX-7XX-10-101010-9-XX-5-XX-7XX-10-101010|
E|-7-XX-5-XX----------------7-XX--------------------7-XX-------------------|

e|-------------------------------------------------------------------------|
B|-------------------------------------------------------------------------|
G|-------------------------------------------------------------------------|
D|------7-XX-9XX-12-121212-------7-XX-9XX-12-121212------7-XX-9XX-12-121212|
A|-9-XX-5-XX-7XX-10-101010--9-XX-5-XX-7XX-10-101010-9-XX-5-XX-7XX-10-101010|
E|-7-XX---------------------7-XX--------------------7-XX-------------------|

e|-------------------------------------------------------------------------|
B|-------------------------------------------------------------------------|
G|-------------------------------------------------------------------------|
D|------7-XX-9XX-12-121212----------------------------------9XX-12-121212--|
A|-9-XX-5-XX-7XX-10-101010--9---------------------9-XX-7-XX-7XX-10-101010-9|
E|-7-XX---------------------7---------------------7-XX-5-XX---------------7|

e|-------------------------------------------------------------------------|
B|-------------------------------------------------------------------------|
G|-------------------------------------------------------------------------|
D|-----------9XX-12-121212----------------------------------9XX-12-121212--|
A|-9-XX-7-XX-7XX-10-101010--9---------------------9-XX-7-XX-7XX-10-101010-9|
E|-7-XX-5-XX----------------7---------------------7-XX-5-XX---------------7|

e|-------------------------------------------------------------------------|
B|-------------------------------------------------------------------------|
G|-------------------------------------------------------------------------|
D|-----------9XX-12-121212---------99999999-77777777-99999999-12-12-12-12--|
A|-9-XX-7-XX-7XX-10-101010---------77777777-55555555-77777777-10-10-10-10--|
E|-7-XX-5-XX---------------------------------------------------------------|

e|-------------------------------------------------------------------------|
B|-------------------------------------------------------------------------|
G|-------------------------------------------------------------------------|
D|-99999999-77777777-99999999-12-12-12-12-------------------9XX-12-121212--|
A|-77777777-55555555-77777777-10-10-10-10---------9-XX-7-XX-7XX-10-101010--|
E|------------------------------------------------7-XX-5-XX----------------|

e|-------------------------------------------------------------------------|
B|-------------------------------------------------------------------------|
G|-------------------------------------------------------------------------|
D|-----------9XX-12-121212-----------9XX-12-121212-------------------------|
A|-9-XX-7-XX-7XX-10-101010-9-XX-7-XX-7XX-10-101010-9-----------------------|
E|-7-XX-5-XX---------------7-XX-5-XX---------------7-----------------------|


************************************

| /   slide up
| \   slide down
| h   hammer-on
| p   pull-off
| ~   vibrato
| +   harmonic
| x   Mute note
| b   Bend
| pb  Pre-bend
| br  Bend release
| pbr Pre-bend release
| brb Bend release bend

************************************
Добавлено: 03.11.2013
Другие материалы по этой песне:
  • Аккорды и текст

Страница создана 03.11.2013
http://primanota.ru/bots/stop-chords.htm
Привет, Гость.
Предлагаем пройти революционный курс по гитаре.
Подарок от PrimaNota.Ru, забирай!