PrimaNota.ru - самый крупный в мире бесплатный архив песенных текстов, аккордов, табулатур и нот


the both - Milwaukee - аккорды и текст, видео

Регистрация Запомнить меня
Войти через:  Facebook Google Twitter Vk Yandex Mail.ru

the both - Milwaukee - аккорды и текст, видео

Печатать
Просмотров: 61
Milwaukee
the both
Tuning: STANDARD (EADGBE)

   ---CHORDS USED---

      A     F#m     G      D      E
e|----x------2------3------2------x------------------------------------------|
B|----2------2------3------3------x------------------------------------------|
G|----2------2------4------2------1------------------------------------------|
D|----2------4------5------0------2------------------------------------------|
A|----x------4------5------x------2------------------------------------------|
E|----x------2------3------x------x------------------------------------------|


---INTRO CHORDS---
A-F#m-A-D
A-D-A-E

   ---VERSE---

         A                       F#m
We walked over the bridge in Milwaukee
         G         A           D

Past the statue of Fonz and the duck
     A            E

With the wind kicking in
        F#m          A       D

and the sparrows all running amok
         A            F#m           G

And that woman, your friend who was pregnant
         A           E      F#m

Put your hand on her belly for luck
         A                  
And I laughed 'cause it's you and
   D                          A

I knew that you knew you were stuck


   ---CHORUS---
        E     A   D
You can tee---eee-eeell
     F#m          D
By the laugh in the dark

       A            E
at the sound of the bell

        E     A   D
You can tee---eee-eeell

        F#m          D
It's the nucleus burning

   A          E
inside of the cell

       F#m        D
It's the nucleus burning

   A          E
inside of the cell...



    ---SOLO BREAK---


    ---VERSE II---


         A                       F#m
We got over that bridge and went walking

G         A            D

Back to a table with cards to be dealt
         A           E           F#m

And a show where the whole front row
            A              D
was taking pictures of itself
      A        F#m

And then, man, your old friend turned
    G             

the night on its end
          A          E    F#m

Like your time was a bottomless well
         A                 

But you grabbed me and said, "Come
   D                           A
on back from the ledge for a spell"


   ---CHORUS II---
        E     A   D
You can tee---eee-eeell
     F#m          D
By the laugh in the dark

       A            E
at the sound of the bell

        E     A   D
You can tee---eee-eeell

        F#m          D
It's the nucleus burning

   A          E
inside of the cell

       F#m        D
It's the nucleus burning

   A          E
inside of the cell...


Tuning: STANDARD (EADGBE)

   ---CHORDS USED---

      A     F#m     G      D      E
e|----x------2------3------2------x------------------------------------------|
B|----2------2------3------3------x------------------------------------------|
G|----2------2------4------2------1------------------------------------------|
D|----2------4------5------0------2------------------------------------------|
A|----x------4------5------x------2------------------------------------------|
E|----x------2------3------x------x------------------------------------------|

| h   hammer-on
| p   pull-off
| ~   vibrato
| +   harmonic
| x   Mute note
| b   Bend
| pb  Pre-bend
| br  Bend release
| pbr Pre-bend release
| brb Bend release bend

************************************
Добавлено: 24.05.2016
Другие материалы по этой песне:
  • Аккорды и текст

Страница создана 24.05.2016
http://primanota.ru/both/milwaukee-chords.htm
Привет, Гость.
Предлагаем пройти революционный курс по гитаре.
Подарок от PrimaNota.Ru, забирай!