PrimaNota.ru - самый крупный в мире бесплатный архив песенных текстов, аккордов, табулатур и нот


Boston - Walk On Medley - таба, видео

Регистрация Запомнить меня
Войти через:  Facebook Google Twitter Vk Yandex Mail.ru

Boston - Walk On Medley - таба, видео

Печатать
Просмотров: 133
Author/Artist: Boston
Title: Walk On (Medley)
Album: Walk On
Transcribed by: Travis Lausch
Email: the4elements2001@hotmail.com

This is a 4 song file with the title track from Boston's
latest album, "Walk On". I'm definitely the first to tab
these songs, so bear with me if some of it is horribly
wrong. Some of the solo may be a half-step off, but
it is definitely close.

-|-0-------|--------------|------------------|---------------------|----------|
-|-0-------|--------------|------------------|---------------------|----------|
-|-x-------|--------------|------------------|---------------------|----------|
-|-2-------|------------2-|------------2p0-2-|---/7---7--5---4h5p4-|----------|
-|-2-------|--------------|------------2p0-2-|---/7---7--5---4h5p4-|----------|
-|-0-------|-0----0h3p0---|-0----0h3p0-------|-0----0------0-------|----------|
 Walkin' At Night

-|---------------------|-------------------|-------------|---------|----------|
-|---------------------|-------------------|-------------|---------|----------|
-|---------------------|-------------------|-------------|---------|----------|
-|-0h2---2p0h2-----2---|-/5---/9-7---4b5r4-|-0h2---2p0h2-|-----2---|----------|
-|-0h2---2p0h2---------|-/5-x-/9-7---4b5r4-|-0h2---2p0h2-|---------|----------|
-|-----0-------0h3---0-|----x------0-------|-----0-------|-0h3---0-|----------|


-|-----------------|-----------------------|-------------------------------|--|
-|-----------------|-----------------------|-------------------------------|--|
-|-----------------|-----------------------|-------------------------------|--|
-|-7---7-7---7-----|-5-5h7---2p0h2-----2---|-5---5-7---7h9p7---0h2---2p0h2-|--|
-|-7---7-7---7-----|-5-5h7-x-2p0h2---------|-5-x-5-7-x-7h9p7---0h2---2p0h2-|--|
-|---0-----0---0h3-|-------x-------0h3---0-|---x-----x-------0-----0-------|--|


-|---------|-------|-------------|-------------|-----------|-------------|----|
-|---------|-2^----|-------------|-------------|-----------|-------------|----|
-|---------|-2^----|-------------|-------------|-----------|-------------|----|
-|-----2---|-2^----|-------------|---------2---|-----5-7-7-|---------2---|----|
-|---------|-0^----|-------------|-------------|-----5-7-7-|-------------|----|
-|-0h3---0-|-------|-0--3b4vvvvv-|-0-0h3p0---0-|-0-0-------|-0-0h3p0---0-|----|
             rake

-|--------------|-------------|-----------|-------------|---------|-----------|
-|--------------|-------------|-----------|-------------|---------|-----------|
-|--------------|-------------|-----------|-------------|---------|-----------|
-|---/7-7-5-----|---------2---|-----5-7-7-|---------2---|-------2-|-----------|
-|---/7-7-5-x-x-|-------------|-----5-7-7-|-------------|---------|-----------|
-|-0--------x-x-|-0-0h3p0---0-|-0-0-------|-0-0h3p0---0-|-0-0-3---|-----------|


-||-------------------------------------------------------||-----------|------|
-||-------------------------------------------------------||-----------|------|
-||*-----------------------------------------------------*||*----------|------|
-||*-----------------------------------------------------*||*--------2-|------|
-||--5p0h4p0h5p0h7p0h5p0h4p0h2p0h4p0h2p0h4p0h5p0h7p0h5p0--||-----------|------|
-||-------------------------------------------------------||-0-0h3p0---|------|
   May be wrong... Distortion on.

-|---------|-----------|-----------||-----------|----------------------------|
-|---------|-----------|-----------||-----------|----------------------------|
-|---------|-----------|----------*||-----------|----------------------------|
-|-5---7p5-|---------2-|-7---7-7p5*||-7vvvvvvvv-|----------------------------|
-|-5---7p5-|-----------|-7---7-7p5-||-7vvvvvvvv-|-5p0h4p0h5p0h7p0h5p0h4p0h5--|
-|---------|-0-0h3p0---|---x-------||-----------|----------------------------|
                       Ending 1      Ending 2

-|---------------------------|---------------------------|--------------------|
-|---------------------------|---------------------------|--------------------|
-|---------------------------|-5p0h4p0h5p0h7p0h5p0h4p0h5-|--------------------|
-|-5p0h4p0h5p0h7p0h5p0h4p0h5-|---------------------------|--------------------|
-|---------------------------|---------------------------|--------------------|
-|---------------------------|---------------------------|--------------------|


-|---------------------------|---------------------------|-----------|-------|
-|---------------------------|---------------------------|-----------|-------|
-|---------------------------|---------------------------|-----------|-------|
-|-5p0h4p0h5p0h7p0h5p0h4p0h5-|---------------------------|---------2-|-2-2-2-|
-|---------------------------|-5p0h4p0h5p0h7p0h5p0h4p0h5-|-----------|-2-2-2-|
-|---------------------------|---------------------------|-0-0h3p0---|-------|
                                  pm   . . . . . . . . .               . . .

-|--------------------------|------------------|-------------------|-------|--|
-|--------------------------|------------------|-------------------|-------|--|
-|--------------------------|------------------|-------------------|-------|--|
-|-7---7-5-4---0h-2---2p0h2-|-4-5---/9-7-5-5/7-|-7-5-4-0h2-x-2p0h2-|-------|--|
-|-7---7-5-4---0h-2---2p0h2-|-4-5---/9-7-5-5/7-|-7-5-4-0h2-x-2p0h2-|-------|--|
-|---x-------x------x-------|-----x------------|-------------------|-0-0-0-|--|
                                                                     . . .

-|---------|-------------------|--------------------|---------|---------------|
-|-------2-|-------------------|-10-8-7-------------|-------2-|---------------|
-|-----4-2-|-------------------|-9--7-6-------------|-----4-2-|---------------|
-|---4---2-|-4-5-7/9-7-5-7/9\7-|-7--5-4-0h2---2p0h2-|---4---2-|---------------|
-|-2-----0-|-4-5-7/9-7-5-7/9\7-|-7--5-4-0h2---2p0h2-|-2-----0-|---------------|
-|---------|-------------------|------------x-------|---------|---------------|
           Dist. off

-|---------||------------|---------|-----------|----------||------------------|
-|---------||------------|---------|-----------|----------||------------------|
-|---------||*-----------|---------|-----------|---------*||------------------|
-|-/14-----||*---------2-|-2-2-2-5-|---------2-|-7-7-7-5-*||------------------|
-|---------||------------|-2-2-2-5-|-----------|-7-7-7-5--||------------------|
-|-/12-----||--0-0-3-0---|---------|-0-0-3-0---|----------||------------------|
 Walk On

-||----------------|--------------------||-------------------------|----------|
-||----------------|--------------------||-------------------------|----------|
-||*---------------|-------------------*||-------------------------|----------|
-||*---------------|-------------------*||-----------------2-2-2/5-|----------|
-||--------7---5---|---------5---4p2p0--||---------7---5---2-2-2/5-|----------|
-||0-0-3-0---0---0-|-0-0-3-0---0--------||-0-0-3-0---0---0---------|----------|
                                      3x

-||----------------|--------------|---------------|-------------------||------|
-||----------------|--------------|---------------|-------------------||------|
-||*---------------|--------------|---------------|------------------*||------|
-||*---------------|--------------|---------------|------------------*||------|
-||------7---5---7-|----7---12-11-|---------7---5-|---------5---4p2p0-||------|
-||--0-0-0-0-0-0-0-|0-0-0-0-0--0--|-0-0-3-0---0---|-0-0-3-0---0-------||------|
 Verse 1                                          Ending 1

-|-------------|---------------|---------------|-------------|---------|------|
-|-------------|---------------|---------------|-------------|---------|------|
-|-------------|---------------|---------------|-------------|---------|------|
-|---------2-5-|---------------|---------------|---------2---|-2-2-2-5-|------|
-|---------2-5-|-----7---5---7-|-----7---12-11-|-------------|-2-2-2-5-|------|
-|-0-0-3-0-----|-0-0-0-0-0-0-0-|-0-0-0-0-0--0--|-0-0-3-0---0-|---------|------|
 Ending 2

-|---------------|---------------|-----------------|-----------------|--------|
-|---------------|---------------|-----------------|-----------------|--------|
-|---------------|---------------|-----------------|-----------------|--------|
-|---------------|---------------|-----------------|-----------------|--------|
-|-----7---5---7-|-----7---12-11-|---------7---5---|-----5---4---5---|--------|
-|-0-0-0-0-0-0-0-|-0-0-0-0-0--0--|-0-0-3-0---0---0-|-0-0---0---0---0-|--------|


-|------|--------|----------------------------|-------------------------|-----|
-|------|--------|----------------------------|-------------------------|-----|
-|-5----|-7----8-|-12-12-14-12-12-14-14-14-12-|-------------------------|-----|
-|-5----|-7----8-|-10-10-10-10-10-10-10-10-10-|-12-12-14-12-14-12-14-12-|-----|
-|-3----|-5----6-|----------------------------|-10-10-10-10-10-10-10-10-|-----|
-|-3----|-5----6-|----------------------------|-------------------------|-----|
 Pre Chorus 1

-|--------|-------|----------|----------------------------|------|------|-----|
-|--------|-------|----------|----------------------------|------|------|-----|
-|-----8--|-10----|-12---13--|----------------------------|------|------|-----|
-|-6---8--|-10----|-12---13--|-12-12-14-12-12-14-14-14-12-|-5----|-6----|-----|
-|-6---6--|-8-----|-10---11--|-10-10-10-10-10-10-10-10-10-|-5----|-6----|-----|
-|-4---6--|-8-----|-10---11--|----------------------------|-3----|-4----|-----|


-|------|------|-------------------------|---------|---------|----------------|
-|------|------|-------------6--6--6--5--|-5---5-5-|-6---6-6-|----------------|
-|-5----|-5----|-------------5--5--5--5--|-5---5-5-|-5---5-5-|----------------|
-|-5----|-5----|---------3---5--5--5--5--|-5---5-5-|-5---5-5-|----------------|
-|-3----|-3----|-------5-----------------|-3---3-3-|-3---3-3-|----------------|
-|------|------|-3-5-6-----3-------------|---------|---------|----------------|
 Chorus

-|------------------------|-------------------|---------------|---------------|
-|-------------5--5--6--5-|-------------------|---------------|---------------|
-|-------------5--5--5--5-|-----7---5---7p5---|-----7---12-10-|---------------|
-|---------3---5--5--5--5-|-0-0-0-0-0-0-0---7-|-0-0-0-0-0--0--|---------------|
-|-------5----------------|-------------------|---------------|---------------|
-|-3-5-6-----3------------|-------------------|---------------|---------------|
                          1st interlude

-|-----------------|-------------------|---------------|---------------|------|
-|-----------------|-------------------|---------------|---------------|------|
-|-----7---5---7---|-12b13r12p10-12-10-|-----7---5---7-|-----7---12-11-|------|
-|-0-0-0-0-0-0-0-0-|-0-----------0--0--|-0-0-0-0-0-0-0-|-0-0-0-0-0--0--|------|
-|-----------------|-------------------|---------------|---------------|------|
-|-----------------|-------------------|---------------|---------------|------|


-|-------------------|-----------------|-------------------|---------------|--|
-|-------------------|-----------------|-------------------|---------------|--|
-|-----7-5-7-5-7-5-7-|-----------------|-------------------|---------------|--|
-|-0-0-0-0-0-0-0-0-0-|-----------------|-------------------|---------------|--|
-|-------------------|---------7---5---|---------5---4p2p0-|---------7---5-|--|
-|-------------------|-0-0-3-0---0---0-|-0-0-3-0---0-------|-0-0-3-0---0---|--|
             |-AH--|

-|---------|---------------|---------------|-----------------|----------------|
-|---------|---------------|---------------|-----------------|----------------|
-|---------|---------------|---------------|-----------------|----------------|
-|-2-2-2-5-|---------------|---------------|-----------------|----------------|
-|-2-2-2-5-|-----7---5---7-|-----7---12-11-|---------7---5---|----------------|
-|---------|-0-0-0-0-0-0-0-|-0-0-0-0-0--0--|-0-0-3-0---0---0-|----------------|
           Verse 2

-|-------------------|---------------|---------------|-----------------|------|
-|-------------------|---------------|---------------|-----------------|------|
-|-------------------|---------------|---------------|-----------------|------|
-|-------------------|---------------|---------------|-----------------|------|
-|---------5---4p2p0-|-----7---5---7-|-----7---12-11-|---------7---5---|------|
-|-0-0-3-0---0-------|-0-0-0-0-0-0-0-|-0-0-0-0-0--0--|-0-0-3-0---0---0-|------|


-|------------|---------------|---------------|---------------|---------|-----|
-|------------|---------------|---------------|---------------|---------|-----|
-|------------|---------------|---------------|---------------|---------|-----|
-|-2--2--2--5-|---------------|---------------|---------------|-2-2-2-5-|-----|
-|-2--2--2--5-|-----7---5---7-|-----7---12-11-|---------7---5-|-2-2-2-5-|-----|
-|------------|-0-0-0-0-0-0-0-|-0-0-0-0-12-11-|-0-0-3-0---0---|---------|-----|


-|---------------|---------------|-----------------|---------------|----------|
-|---------------|---------------|-----------------|---------------|----------|
-|---------------|---------------|-----------------|---------------|----------|
-|---------------|---------------|-----------------|---------------|----------|
-|-----7---5---7-|-----7---12-11-|---------7---5---|---------7---5-|----------|
-|-0-0-0-0-0-0-0-|-0-0-0-0-0--0--|-0-0-3-0---0---0-|-0-0-3-0---0---|----------|


-|------|-------|----------------------------|----------------------------|---|
-|------|-------|----------------------------|----------------------------|---|
-|-5----|-7---8-|-12-12-14-12-12-14-14-14-12-|----------------------------|---|
-|-5----|-7---8-|-10-10-10-10-10-10-10-10-10-|-12-12-14-12-14-12-14-12-14-|---|
-|-3----|-5---6-|----------------------------|-10-10-10-10-10-10-10-10-10-|---|
-|------|-------|----------------------------|----------------------------|---|
 Pre Chorus 2

-|-------|-----------|----------------------------------|-----|------|--------|
-|-------|-----------|----------------------------------|-----|------|--------|
-|-----8-|-10--12-13-|-12-12-14-12-14-12-12-14-12-12-14-|-----|------|--------|
-|-6---8-|-10--12-13-|-10-10-10-10-10-10-10-10-10-10-10-|-5---|-6----|--------|
-|-6---6-|-8---10-11-|----------------------------------|-5---|-6----|--------|
-|-4---6-|-8---10-11-|----------------------------------|-3---|-4----|--------|


-||-------|--------|---------------------||---------------|---------------|---|
-||-5-5---|-6-6----|-------------5-5-6-5-||---------------|---------------|---|
-||*5-5---|-5-5----|-------------5-5-5-5*||---------------|---------------|---|
-||*5-5---|-5-5----|---------3---5-5-5-5*||-----7---5---7-|-----7---12-11-|---|
-||-3-3---|-3-3----|-------5-------------||-0-0-0-0-0-0-0-|-0-0-0-0-0--0--|---|
-||-------|--------|-3-5-6-----3---------||---------------|---------------|---|
 Chorus 2                              4x  Outro

-|---------------|----------------||--------------|------------------|--------|
-|---------------|----------------||--------------|------------------|--------|
-|---------------|----------------||*-------------|------------------|--------|
-|-----7---5---7-|-14-14-14-12-11-||*---7p5---5-7-|-----7---12-10b11-|--------|
-|-0-0-0-0-0-0-0-|-0--0--0--0--0--||0-0-0---7-0-0-|-0-0-0-0-0--0-----|--------|
-|---------------|----------------||--------------|------------------|--------|


-|---------------|-------------------------||---------------|----------------|
-|---------------|-------------------------||---------------|----------------|
-|---------------|------------------------*||---------------|----------------|
-|-----7---5---7-|-10-10-10-12-12b14r12p10*||-----7---5---7-|-----7---12-11--|
-|-0-0-0-0-0-0-0-|-10-10-10-12-12b14r12p10-||-0-0-0-0-0-0-0-|-0-0-0-0-0--0---|
-|---------------|-------------------------||---------------|----------------|


-|---------------|---------------||--------------------------------||------|--|
-|---------------|---------------||--------------------------------||------|--|
-|---------------|---------------||*------------------------------*||-2*4--|--|
-|-----7---5---7-|-7-7-7-7-7-7-7-||*------------------------------*||------|--|
-|-0-0-0-0-0-0-0-|-0-0-0-0-0-0-0-||--------------------------------||------|--|
-|---------------|---------------||-7--7--7--7--4--5--5--5---------||------|--|
                                 Get Organ-ized   bass for gtr. x30 gtr last

-||----------------------|------------------||-------|----------------|-------|
-||----------------------|------------------||-------|----------------|-------|
-||*-------4---------4---|-------4---/9-9-7-||-------|-----7-9-7-9b11-|-------|
-||*---------------------|-----------/9-9-7-||--/14--|-7h9------------|-------|
-||--2-2-5---5-2-2-5---5-|-2-2-5---5--------||-------|----------------|-------|
-||----------------------|------------------||--/12--|----------------|-------|
                                          x4 Solo w/wah

-|-------------------|---------------------------------------|---------------|
-|-12r10-7-10-7-10-7-|-----7-10-7-10b12vvv-10b12vvv-10b12vvv-|---------------|
-|-------------------|-7h9-----------------------------------|---9---12---9--|
-|-------------------|---------------------------------------|-9---9----9----|
-|-------------------|---------------------------------------|---------------|
-|-------------------|---------------------------------------|---------------|


-|-----------------------------------------------------------------|-------|--|
-|-----------------------------------------------------12-14b16vvv-|-------|--|
-|---12---9---12---9---12---9---12---14b16-12-14-12-14-------------|-------|--|
-|-9----9---9----9---9----9---9----9-------------------------------|-------|--|
-|-----------------------------------------------------------------|-------|--|
-|-----------------------------------------------------------------|-------|--|
                                                                Organ fill

-|-----------|----10-12b14-12-12-10-12-10-------|------------------------|----|
-|-----------|-12-------------------------12-12-|------------------------|----|
-|---7-------|----------------------------------|-11r9---13r11---14r12---|----|
-|-9---9p7h9-|----------------------------------|------9-------9-------9-|----|
-|-----------|----------------------------------|------------------------|----|
-|-----------|----------------------------------|------------------------|----|
     AH

-|---------|-------------------------------------------------|-15b17-15-12-|--|
-|---------|-------------------------------------------------|-------------|--|
-|-16r14---|-9---7---9---7---9---7---9---7---9---7---9---7---|-------------|--|
-|-------9-|---9---9---7---7---7---7---7---7---7---7---7---7-|-------------|--|
-|---------|-------------------------------------------------|-------------|--|
-|---------|-------------------------------------------------|-------------|--|


-|-15-12----------|-------------------------|------|---------------------|----|
-|-------15-15b17-|-------------------------|------|---------------------|----|
-|----------------|-4-4-4-4-4-4-------------|------|---------------------|----|
-|----------------|-4-4-4-4-4-4-7-7-7-7-7-7-|-5----|--5-6-3-5-1-3--------|----|
-|----------------|-2-2-2-2-2-2-7-7-7-7-7-7-|-5----|--------------4-6-3--|----|
-|----------------|-------------5-5-5-5-5-5-|-3----|---------------------|----|
                                                   Keyboard for gtr.

-|------|-------|------|-------------|-----|-----||----------------------||---|
-|------|-------|------|-------------|-----|-----||----------------------||---|
-|-10---|-8--6--|-10---|-12--13--6---|-5---|-----||*--------------------*||---|
-|-10---|-8--6--|-10---|-12--13--6---|-5---|-x\--||*--------------------*||---|
-|-8----|-6--4--|-8----|-10--11--4---|-3---|-x\--||--8--8-8-8--8--8-8-8--||---|
-|------|-------|------|-------------|-----|-x\--||----------------------||---|
                                                                       x7

-|--------------||-----------------------------||-----------|------------|----|
-|--------------||-----------------------------||-----------|------------|----|
-|--------------||*---------------------------*||-----------|------------|----|
-|--------------||*---------------------------*||-8-10vvvvv-|-11vvvvvvvv-|----|
-|-10--10-10-10-||-11--11-11-11--11--11-11-11--||-----------|------------|----|
-|--------------||-----------------------------||-----------|------------|----|


-|-----------------|-----------------|----16-18-18b20-20b22|22b24-22pb24-22--|
-|-15b16vvvvvvvvvv-|-16b18vvvvvvvvvv-|-18------------------|-----------------|
-|-----------------|-----------------|---------------------|-----------------|
-|-----------------|-----------------|---------------------|-----------------|
-|-----------------|-----------------|---------------------|-----------------|
-|-----------------|-----------------|---------------------|-----------------|
 Solo 2 w/a little delay at the beginning

-|-20p17----20p17----20p17----20p17----20p17----|-20p17----20p17----20p17----|
-|-------17-------17-------17-------17-------17-|-------17-------17-------17-|
-|----------------------------------------------|----------------------------|
-|----------------------------------------------|----------------------------|
-|----------------------------------------------|----------------------------|
-|----------------------------------------------|----------------------------|


-|t20p16p13-t20p16p13-t20p16p13-t20p16p13-t20p16p13-t20p16p13-t20p16p13-|-----|
-|----------------------------------------------------------------------|-----|
-|----------------------------------------------------------------------|-----|
-|----------------------------------------------------------------------|-----|
-|----------------------------------------------------------------------|-----|
-|----------------------------------------------------------------------|-----|


-|t20p16p13-t20p16p13-t20p16p13-t20p16p13-t20p16p13-t20p16p13-t20p16p13-|-----|
-|----------------------------------------------------------------------|-----|
-|----------------------------------------------------------------------|-----|
-|----------------------------------------------------------------------|-----|
-|----------------------------------------------------------------------|-----|
-|----------------------------------------------------------------------|-----|


-|t20p16p13-t20p16p13-t20p16p13-t21p16p13-t21p16p13-t21p16p13-t21p16p13-|-----|
-|----------------------------------------------------------------------|-----|
-|----------------------------------------------------------------------|-----|
-|----------------------------------------------------------------------|-----|
-|----------------------------------------------------------------------|-----|
-|----------------------------------------------------------------------|-----|


-|-t23p18p15-t23p18p15-t23p18p15-t23p18p15-t23p18p15-t23p18p15-t23p18p15-|----|
-|-----------------------------------------------------------------------|----|
-|-----------------------------------------------------------------------|----|
-|-----------------------------------------------------------------------|----|
-|-----------------------------------------------------------------------|----|
-|-----------------------------------------------------------------------|----|


-|-t23p18p15-t23p18p15-t23p18p15-t23p18p15-t23p18p15-t23p18p15-t23p18p15-|----|
-|-----------------------------------------------------------------------|----|
-|-----------------------------------------------------------------------|----|
-|-----------------------------------------------------------------------|----|
-|-----------------------------------------------------------------------|----|
-|-----------------------------------------------------------------------|----|


-|-------------|-----------------------------------------------|---------|----|
-|-------------|-----------------------------------------------|---------|----|
-|-------------|-5-6-7-8-9-10-11-12-13-14-15-16-17-18-19-20-21-|-21------|----|
-|-x\\\\\\\\\\-|-5-6-7-8-9-10-11-12-13-14-15-16-17-18-19-20-21-|-21------|----|
-|-x\\\\\\\\\\-|-3-4-5-6-7-8--9--10-11-12-13-14-15-16-17-18-19-|-19------|----|
-|-x\\\\\\\\\\-|-----------------------------------------------|---------|----|


-|-10b12--|-12b14--|-------------|------------|------------|----------|-------|
-|--------|--------|-------------|------------|------------|----------|-------|
-|--------|--------|--7b8-7------|-7b8-7------|------------|-7b8-7----|-------|
-|--------|--------|---------8-8-|--------8-8-|-8---8---8--|----------|-------|
-|--------|--------|---------8-8-|--------8-8-|-8---8---8--|----------|-------|
-|--------|--------|---------6-6-|--------6-6-|-6---6---6--|----------|-------|
                   Walk On (Some More) AH                    AH  AH

-|-----------|------------------------|----------|----------|-----------------|
-|-----------|------------------------|----------|----------|-----------------|
-|-7b8r7p5-7-|-5-7-8-10b12r10p8-7h8p7-|-7b8-7----|-7b8-7----|-----------------|
-|-----------|------------------------|----------|----------|-----------------|
-|-----------|------------------------|----------|----------|-----------------|
-|-----------|------------------------|----------|----------|-----------------|
                                                   AH  AH

-|---------------------------|----------|----------|-----------------------|--|
-|----8-9-----8-----6--------|----------|----------|-----------------------|--|
-|-10---11b13-10b12-8b10vvvv-|-7b8-7----|-7b8-7----|-5-7-8p7h8-10b12r10p8--|--|
-|---------------------------|----------|----------|-----------------------|--|
-|---------------------------|----------|----------|-----------------------|--|
-|---------------------------|----------|----------|-----------------------|--|


-|---------|-14-16b18r16-14-16b18-|----16b18-------------------12-16b18vvvvv-|
-|---------|----------------------|-12-------------------12-15---------------|
-|-7h8p7---|----------------------|----------------12-14---------------------|
-|-------8-|----------------------|----------12-14---------------------------|
-|---------|----------------------|------------------------------------------|
-|---------|----------------------|------------------------------------------|


-|t22p18-t22p18-t22p18-t22p18-t22p18-t22p18-t22p18-t22p18-|-22b24---------|---|
-|--------------------------------------------------------|---------------|---|
-|--------------------------------------------------------|---------------|---|
-|--------------------------------------------------------|---------------|---|
-|--------------------------------------------------------|---------------|---|
-|--------------------------------------------------------|---------------|---|


-|--------------||----------------------|------------------------||-----------|
-|--------------||----------------------|------------------------||-----------|
-|--------------||*---------------------|-----------------------*||-----------|
-|-9---9---9\---||*---------2---2-2-2-5-|---------2---/7--7-7-5-*||-----------|
-|-9---9---9\---||--------------2-2-2-5-|-------------/7--7-7-5--||-----------|
-|-7---7---7\---||--0-0-3-0---0---------|-0-0-3-0---0------------||-----------|


-||------------------|--------------------||-------------||---------------|---|
-||------------------|--------------------||-------------||---------------|---|
-||*-----------------|-------------------*||-------------||*--------------|---|
-||*-----------------|-------------------*||-----2-2-2-5-||*--------------|---|
-||----------7---5---|---------5---4p2p0--||-----2-2-2-5-||----7---5---7--|---|
-||--0-0-3-0---0---0-|-0-0-3-0---0--------||-0-0---------||0-0-0-0-0-0-0--|---|
                     Ending 1           x3 Ending 2      Verse 3

-|---------------|-----------------|-------------------||-----------------|---|
-|---------------|-----------------|-------------------||-----------------|---|
-|---------------|-----------------|------------------*||-----------------|---|
-|---------------|-----------------|------------------*||---------2--5----|---|
-|-----7---12-11-|---------7---5---|---------5---4p2p0-||---------2--5----|---|
-|-0-0-0-0-0--0--|-0-0-3-0---0---0-|-0-0-3-0---0-------||-0-0-3-0---------|---|
                                   Ending 1             Ending 2

-|---------------|---------------|-----------------|---------|---------------|
-|---------------|---------------|-----------------|---------|---------------|
-|---------------|---------------|-----------------|---------|---------------|
-|---------------|---------------|-----------------|-2-2-2-5-|---------------|
-|-----7---5---7-|-----7---12-11-|---------7---5---|-2-2-2-5-|-----7---5---7-|
-|-0-0-0-0-0-0-0-|-0-0-0-0-0--0--|-0-0-3-0---0---0-|---------|-0-0-0-0-0-0-0-|


-|---------------|---------------|---------------|-------|--------|-----------|
-|---------------|---------------|---------------|-------|--------|-----------|
-|---------------|---------------|---------------|-5-----|-7---8--|-----------|
-|---------------|---------------|---------------|-5-----|-7---8--|-----------|
-|-----7---12-11-|---------7---5-|-----5---4---5-|-3-----|-5---6--|-----------|
-|-0-0-0-0-0--0--|-0-0-3-0---0---|-0-0---0---0---|-------|--------|-----------|
                                                 Pre Chorus 3

-|----------------------------|----------------------------|----------|-------|
-|----------------------------|----------------------------|----------|-------|
-|----------------------------|-12-12-14-12-14-12-14-12-14-|------8---|-------|
-|-10-10-12-10-12-10-12-10-12-|-10-10-10-10-10-10-10-10-10-|-6----8---|-------|
-|-8--8--8--8--8--8--8--8--8--|----------------------------|-6----6---|-------|
-|----------------------------|----------------------------|-4----6---|-------|


-|---------|----------------------------|---------||----------|---------|-----|
-|---------|----------------------------|---------||---7--7---|-8--8----|-----|
-|-10--11--|----------------------------|---------||*--7--7---|-7--7----|-----|
-|-10--11--|-13-13-15-13-15-13-15-13-15-|-6----7--||*--7--7---|-7--7----|-----|
-|-8---9---|-11-11-11-11-11-11-11-11-11-|-6----7--||---5--5---|-5--5----|-----|
-|-8---9---|----------------------------|-4----5--||----------|---------|-----|
                                                  Chorus 3

-|----------------------||---------|---------|----------------------|------|-|
-|-------------7-7-8-7--||--7--7---|--8--8---|-----------------7----|-7\---|-|
-|-------------7-7-7-7-*||--7--7---|--7--7---|-----------------7----|-7\---|-|
-|---------5---7-7-7-7-*||--7--7---|--7--7---|---------5-------7----|-7\---|-|
-|-------7--------------||--5--5---|--5--5---|-------7---------5----|-5\---|-|
-|-5-7-8-----5----------||---------|---------|-5-7-8-----5-5-5------|------|-|
                      x8  Outro                          . . .
Добавлено: 29.05.2012
Другие материалы по этой песне:
  • Аккорды и текст

Страница создана 29.05.2012
http://primanota.ru/boston/walk-on-medley-chords.htm
Привет, Гость.
Предлагаем пройти революционный курс по гитаре.
Подарок от PrimaNota.Ru, забирай!