PrimaNota.ru - самый крупный в мире бесплатный архив песенных текстов, аккордов, табулатур и нот


Boston - Star Spangled Banner - таба, видео

Регистрация Запомнить меня
Войти через:  Facebook Google Twitter Vk Yandex Mail.ru

Boston - Star Spangled Banner - таба, видео

Печатать
Просмотров: 156
Subject"Star Spangled Banner/4th of July reprise
Artist:Boston
Album: Greatest Hits

Guitar 1 (distorted electric)
|--------------|---------------|------------------|----------------|
|--------------|---------------|------------------|----------------|
|-7-4-0-4------|-11-9-7--------|---11-9-7h9p7-6---|-4-6-7-7--------|
|--------------|--------4-6-7--|-7--------------7-|----------------|
|---------7-9--|---------------|------------------|---------7-4-0--|
|---------5-7--|---------------|------------------|----------------|

Guitar 2(distorted electric)
|--------------|---------------|---2--------------|----------------|
|--------------|---------------|----5-3h5p3-2-----|----------------|
|--------------|-11-9-7--------|-2------------2---|-4-6-7-7--------|
|-7-4-0-4---7--|--------4---2--|------------------|--------------0-|
|---------7-5--|----------2-0--|------------------|----------7-4-0-|
|---------5----|----------0----|------------------|----------5-2---|


Guitar 1
|--------------|---------------|-12-14-12-10h12p10-9---|-9-10-10------|
|--------------|---------------|--------------------10-|10-10-10------|
|-----------7--|-11-9-7--------|-----------------------|--------------|
|-7-4-0-4-7----|--------4-6-7--|-----------------------|--------7-4-0-|
|--------------|---------------|-----------------------|--------------|
|--------------|---------------|-----------------------|--------------|

Guitar 2
|--------------|---------------|---2---------------|-----------------|
|--------------|---------------|-----5-3h5p3-2-----|-----------------|
|-----------7--|-11-9-7--------|-2-------------2---|-4-6-7-7---------|
|-7-4-0-4-7----|--------4-6-7--|-------------------|---------------0-|
|--------------|---------------|-------------------|---------7-5-4-0-|
|--------------|---------------|-------------------|---------5-3-2---|

Guitar 1
|--------------------------------------------------------------------|
|-7-7-7-8-10-10--8-7-5-7-8-8--8-7-5-3h5p3-2----------7-9/10-10-------|
|-------------------------------------------2--4-6-7-----------------|
|--------------------------------------------------------------------|
|--------------------------------------------------------------------|
|--------------------------------------------------------------------|

Guitar 2
|--------------------------------------------------------------------|
|-7-7-7-8-10-10--8-7-5-7-8-8--8-7-5-3h5p3-2--------------------------|
|-------------------------------------------2--4-6-7-----------------|
|----------------------------------------------------4-6/7-7---------|
|--------------------------------------------------------------------|
|--------------------------------------------------------------------|


Guitars 1&2
|-----------------------------------------------|
|-----------------------------------------------|
|-7-7-7-6-4-4-4--9-11b12r11-9-7-9b11r9-7-6------|
|------------------------------------------7----|
|-----------------------------------------------|
|-----------------------------------------------|

Only one guitar
|----------------------14-15-17--|-------14-12-14b15r14-12-10-9-9-10-10-|
|-------15-15-14-15-17-----------|-15-17-----------------------10-10-10-|
|-14-14--------------------------|--------------------------------------|
|--------------------------------|--------------------------------------|
|--------------------------------|--------------------------------------|
|--------------------------------|--------------------------------------|


After the Star Spangled Banner, they do a short instrumental that goes
like this:

Guitar 1
|-----------|
|-5---6-5---|
|---5-----5-|
|-----------|repeat this a couple of times
|-----------|
|-----------|

Guitar 2
|-----------|
|-----------|
|-----------|
|-5---------|
|-3---------|
|-----------|

Then do this:
|-----------|
|-6/8-5-----|
|-------5---|
|-----------|
|-----------|
|-----------|

And finally, fade away doing this:
|------------------|---------|
|-6-8b10r8-6-8-6-5-|-6/8-5---|
|------------------|-------5-|
|------------------|---------|
|------------------|---------|
|------------------|---------|

That's the whole song about as accurate as I can get it.
Enjoy!!

John Yacovazzi
A.K.A. "The Guitar Wiz"
Добавлено: 05.07.2012
Другие материалы по этой песне:
  • Аккорды и текст

Страница создана 14.04.2012
http://primanota.ru/boston/star-spangled-banner-chords.htm
Привет, Гость.
Предлагаем пройти революционный курс по гитаре.
Подарок от PrimaNota.Ru, забирай!