PrimaNota.ru - самый крупный в мире бесплатный архив песенных текстов, аккордов, табулатур и нот


Bosse - 3 Millionen - аккорды и текст, таба, видео

Регистрация Запомнить меня
Войти через:  Facebook Google Twitter Vk Yandex Mail.ru

Bosse - 3 Millionen - аккорды и текст, таба, видео

Печатать
Просмотров: 286
Авторы музыки: Axel Bosse
Авторы текста: Axel Bosse
3 Millionen
Bosse
http://www.axelbosse.de/

----------------------------------------------------------------------------
                                Bosse - 3 Millionen
----------------------------------------------------------------------------

Vers:

e-x-x-x-x-x-x-x--x-x-x-x-x-x-x--xx-xx-xx-xx-xx-xx-xx--xx-xx-xx-xx-xx-xx-xx-|
B-x-x-x-x-x-x-x--x-x-x-x-x-x-x--xx-xx-xx-xx-xx-xx-xx--xx-xx-xx-xx-xx-xx-xx-|
G-x-x-x-x-x-x-x--x-x-x-x-x-x-x--12-12-12-12-12-12-12--xx-xx-xx-xx-xx-xx-xx-|
D-5-5-5-5-5-5-5--0-0-0-0-0-0-0--00-00-00-00-00-00-00--00-00-00-00-00-00-00-|
A-5-5-5-5-5-5-5--8-8-8-8-8-8-8--10-10-10-10-10-10-10--09-09-09-09-09-09-09-|
E-3-3-3-3-3-3-3--6-6-6-6-6-6-6--12-12-12-12-12-12-12--10-10-10-10-10-10-10-|


Chrous:

Dm                          C
Dein Arzt hat gesagt es ist okay
     F     Fm  Gm
Aber alles tut weh.
Dm                              C
Deine Freunde sagen dir es geht vorbei
        F    Fm       Gm
Aber es geht nicht so leicht
Dm                               C
In deiner Stadt leben über 3 Millionen
Dm                           C
Und du bist heute Nacht unterwegs
Dm                                 C
Um zu schauen ob unter diesen 3 Millionen
       F    Fm      Gm
Jemand ist der dich versteht
       F    Fm      Gm
Jemand ist der dich versteht

Danke, Bosse. :)
Добавлено: 01.03.2012
Другие материалы по этой песне:
  • Аккорды и текст

Страница создана 01.03.2012
http://primanota.ru/bosse/3-millionen-chords.htm
Привет, Гость.
Предлагаем пройти революционный курс по гитаре.
Подарок от PrimaNota.Ru, забирай!