PrimaNota.ru - самый крупный в мире бесплатный архив песенных текстов, аккордов, табулатур и нот


Bosnian Rainbows - Torn Maps - таба, видео

Регистрация Запомнить меня
Войти через:  Facebook Google Twitter Vk Yandex Mail.ru

Bosnian Rainbows - Torn Maps - таба, видео

Печатать
Просмотров: 98
-------------------------------------------------------------------------------
                        TORN MAPS - Bosnian Rainbows
-------------------------------------------------------------------------------
Tabbed by: Steve Dubuque
E-mail: sdubuque43@gmail.com

Tuning:EADGBE


0:01: pick this chord out. reverb, distortion, flange

e|-0--------------------------------------------------------------------------|
B|-2--------------------------------------------------------------------------|
G|-0--------------------------------------------------------------------------|
D|-2--------------------------------------------------------------------------|
A|-0--------------------------------------------------------------------------|
E|----------------------------------------------------------------------------|


0:06: distortion, reverb, delay 

e|----------------------------------------3----------------------------------|
B|-6-6-6-6-6-6--6-6-6-6-6-6-6-6--6-6----6---6--------------------------------|
G|-3-3-3-3-3-3--3-5-5-0-X-X-X-X--0-0--5-------5h7-0--------------------------|
D|----------------------5-5-5-5--0-0-----------------------------------------|
A|---------------------------------------------------------------------------|
E|---------------------------------------------------------------------------|

e|----------------------------------------3----------------------------------|
B|-6-6-6-6-6-6--6-6-6-6-6-6-6-6--6-6----6---6--------------------------------|
G|-3-3-3-3-3-3--3-5-5-0-X-X-X-X--0-0--5-------5h7-0--------------------------|
D|----------------------5-5-5-5--0-0-----------------------------------------|
A|---------------------------------------------------------------------------|
E|---------------------------------------------------------------------------|

0:19

e|---------------------------------------------------------------------------|
B|-3-3-3-4-4-4-4-4---------------3-3-3---------------------------------------|
G|-3-3-3-3-3-3-3-3-3-3-5-5-0-3-0-0-0-0---------------------------------------|
D|-----------------5-5-5-5-5-5-5-5-5-5---------------------------------------|
A|---------------------------------------------------------------------------|
E|---------------------------------------------------------------------------|

e|---------------------------------------------------------------------------|
B|-3-3-3-4-4-4-4-4-----------3-3-3-------------------------------------------|
G|-3-3-3-3-3-3-3-3-3-3-3-5-5-0-0-0-------------------------------------------|
D|-----------------5-5-5-5-5-0-0-0-------------------------------------------|
A|---------------------------------------------------------------------------|
E|---------------------------------------------------------------------------|

0:31 - chorus

e|--------------------------15-15-15-15-15-15-15-15--------------------------|
B|-15-15-15-15-15-15-15-15--15-15-15-15-15-15-15-15--------------------------|
G|-15-15-15-15-15-15-15-15--12-12-12-12-12-12-12-12--------------------------|
D|-15-15-15-15-15-15-15-15---------------------------------------------------|
A|---------------------------------------------------------------------------|
E|---------------------------------------------------------------------------|

e|------(15)(15)-------------------------------------------------------------|
B|-------15--15-------(15)(15)-----------------------------------------------|
G|---------------------15--15---(0)---(0)------------------------------------|
D|-13-13---------13-13-----------8-8-8-8---(0)-------------------------------|
A|---------------------------------------10-10-10----------------------------|
E|---------------------------------------------------------------------------|

e|--------------------------15-15-15-15-15-15-15-15--------------------------|
B|-15-15-15-15-15-15-15-15--15-15-15-15-15-15-15-15--------------------------|
G|-15-15-15-15-15-15-15-15--12-12-12-12-12-12-12-12--------------------------|
D|-15-15-15-15-15-15-15-15---------------------------------------------------|
A|---------------------------------------------------------------------------|
E|---------------------------------------------------------------------------|

e|------(15)(15)-------------------------------------------------------------|
B|-------15--15-------(15)(15)-----------------------------------------------|
G|---------------------15--15---(0)---(0)------------------------------------|
D|-13-13---------13-13-----------8-8-8-8---(0)-------------------------------|
A|---------------------------------------10-10-10----------------------------|
E|---------------------------------------------------------------------------|

e|--------------------------15-15-15-15-15-15-15-15--------------------------|
B|-15-15-15-15-15-15-15-15--15-15-15-15-15-15-15-15--------------------------|
G|-15-15-15-15-15-15-15-15--12-12-12-12-12-12-12-12--------------------------|
D|-15-15-15-15-15-15-15-15---------------------------------------------------|
A|---------------------------------------------------------------------------|
E|---------------------------------------------------------------------------|

e|------(15)(15)-------------------------------------------------------------|
B|-------15--15-------(15)(15)-----------------------------------------------|
G|---------------------15--15---(0)---(0)------------------------------------|
D|-13-13---------13-13-----------8-8-8-8---(0)-------------------------------|
A|---------------------------------------10-10-10----------------------------|
E|---------------------------------------------------------------------------|

e|---------------------------------------------------------------------------|
B|---------------------------------------------------------------------------|
G|10-10-10-10-10-10-10-10--12-12--10-10-10-10--------------------------------|
D|-x--x--x--x--x--x--x--x---x--x--x--x--x--x---------------------------------|
A|-8--8--8--8--8--8--8--8--10-10--8--8--8--8---------------------------------|
E|---------------------------------------------------------------------------|



e|---------------------------------------------------------------------------|
B|---------------------------------------------------------------------------|
G|-8-8-8-8-8-8-8-8-7-7-7-7-7-7-7-7-------------------------------------------|
D|-x-x-x-x-x-x-x-x-x-x-x-x-x-x-x-x-------------------------------------------|
A|-6-6-6-6-6-6-6-6-5-5-5-5-5-5-5-5-------------------------------------------|
E|---------------------------------------------------------------------------|


0:57 - pick this chord out. reverb, distortion, flange

e|-0--------------------------------------------------------------------------|
B|-2--------------------------------------------------------------------------|
G|-0--------------------------------------------------------------------------|
D|-2--------------------------------------------------------------------------|
A|-0--------------------------------------------------------------------------|
E|----------------------------------------------------------------------------|


1:03

e|------------------------------------3---------------------------------------|
B|-3-3-3-3-3-3-3---3---3-3-3-3-3----6---6-------------------------------------|
G|-3-3-3-3-3-3-3h5-5-0-x-x-x-0-0--5-------5h7-0-------------------------------|
D|---------------------5-5-5-0-0----------------------------------------------|
A|----------------------------------------------------------------------------|
E|----------------------------------------------------------------------------|

e|----------------------------------------3-----------------------------------|
B|-6-6-6-6-6-6--6-6-6-6-6-6-6-6--6-6----6---6---------------------------------|
G|-3-3-3-3-3-3--3-5-5-0-X-X-X-X--0-0--5-------5h7-0---------------------------|
D|----------------------5-5-5-5--0-0------------------------------------------|
A|----------------------------------------------------------------------------|
E|----------------------------------------------------------------------------|



1:15 - palm muted

e|----------------------------------------------------------------------------|
B|-3-3-3-3-3-3-3-3-3-3-3-3-3-3-3-3-3-3-3-3-3-3-3-3-3-3-3-3-3-3-3-3------------|
G|-3-3-3-3-3-3-3-5-5-5-5-5-5-5-5-5-x-x-x-x-x-x-x-x-x-x-x-x-x-x-x-x------------|
D|---------------------------------5-5-5-5-5-5-5-5-0-0-0-0-0-0-0-0------------|
A|----------------------------------------------------------------------------|
E|----------------------------------------------------------------------------|

e|----------------------------------------------------------------------------|
B|-3-3-3-3-3-3-3-3-3-3-3-3-3-3-3-3-3-3-3-3-3-3-3-3-3-3-3-3-3-3-3-3------------|
G|-3-3-3-3-3-3-3-5-5-5-5-5-5-5-5-5-x-x-x-x-x-x-x-x-x-x-x-x-x-x-x-x------------|
D|---------------------------------5-5-5-5-5-5-5-5-0-0-0-0-0-0-0-0------------|
A|----------------------------------------------------------------------------|
E|----------------------------------------------------------------------------|

e|---------------------------------------------------------------------------|
B|-3-3-3-4-4-4-4-4---------------3-3-3---------------------------------------|
G|-3-3-3-3-3-3-3-3-3-3-5-5-0-3-0-0-0-0---------------------------------------|
D|-----------------5-5-5-5-5-5-5-5-5-5---------------------------------------|
A|---------------------------------------------------------------------------|
E|---------------------------------------------------------------------------|

e|---------------------------------------------------------------------------|
B|-3-3-3-4-4-4-4-4-----------3-3-3-------------------------------------------|
G|-3-3-3-3-3-3-3-3-3-3-3-5-5-0-0-0-------------------------------------------|
D|-----------------5-5-5-5-5-0-0-0-------------------------------------------|
A|---------------------------------------------------------------------------|
E|---------------------------------------------------------------------------|


1:40 - chorus

e|--------------------------15-15-15-15-15-15-15-15--------------------------|
B|-15-15-15-15-15-15-15-15--15-15-15-15-15-15-15-15--------------------------|
G|-15-15-15-15-15-15-15-15--12-12-12-12-12-12-12-12--------------------------|
D|-15-15-15-15-15-15-15-15---------------------------------------------------|
A|---------------------------------------------------------------------------|
E|---------------------------------------------------------------------------|

e|------(15)(15)-------------------------------------------------------------|
B|-------15--15-------(15)(15)-----------------------------------------------|
G|---------------------15--15---(0)---(0)------------------------------------|
D|-13-13---------13-13-----------8-8-8-8---(0)-------------------------------|
A|---------------------------------------10-10-10----------------------------|
E|---------------------------------------------------------------------------|

e|--------------------------15-15-15-15-15-15-15-15--------------------------|
B|-15-15-15-15-15-15-15-15--15-15-15-15-15-15-15-15--------------------------|
G|-15-15-15-15-15-15-15-15--12-12-12-12-12-12-12-12--------------------------|
D|-15-15-15-15-15-15-15-15---------------------------------------------------|
A|---------------------------------------------------------------------------|
E|---------------------------------------------------------------------------|

e|------(15)(15)-------------------------------------------------------------|
B|-------15--15-------(15)(15)-----------------------------------------------|
G|---------------------15--15---(0)---(0)------------------------------------|
D|-13-13---------13-13-----------8-8-8-8---(0)-------------------------------|
A|---------------------------------------10-10-10----------------------------|
E|---------------------------------------------------------------------------|

e|--------------------------15-15-15-15-15-15-15-15--------------------------|
B|-15-15-15-15-15-15-15-15--15-15-15-15-15-15-15-15--------------------------|
G|-15-15-15-15-15-15-15-15--12-12-12-12-12-12-12-12--------------------------|
D|-15-15-15-15-15-15-15-15---------------------------------------------------|
A|---------------------------------------------------------------------------|
E|---------------------------------------------------------------------------|

e|------(15)(15)-------------------------------------------------------------|
B|-------15--15-------(15)(15)-----------------------------------------------|
G|---------------------15--15---(0)---(0)------------------------------------|
D|-13-13---------13-13-----------8-8-8-8---(0)-------------------------------|
A|---------------------------------------10-10-10----------------------------|
E|---------------------------------------------------------------------------|

e|---------------------------------------------------------------------------|
B|---------------------------------------------------------------------------|
G|10-10-10-10-10-10-10-10--12-12--10-10-10-10--------------------------------|
D|-x--x--x--x--x--x--x--x---x--x--x--x--x--x---------------------------------|
A|-8--8--8--8--8--8--8--8--10-10--8--8--8--8---------------------------------|
E|---------------------------------------------------------------------------|



e|---------------------------------------------------------------------------|
B|---------------------------------------------------------------------------|
G|-8-8-8-8-8-8-8-8-7-7-7-7-7-7-7-7-------------------------------------------|
D|-x-x-x-x-x-x-x-x-x-x-x-x-x-x-x-x-------------------------------------------|
A|-6-6-6-6-6-6-6-6-5-5-5-5-5-5-5-5-------------------------------------------|
E|---------------------------------------------------------------------------|




2:06 - pick this chord out. reverb, distortion, flange

e|-0--------------------------------------------------------------------------|
B|-2--------------------------------------------------------------------------|
G|-0--------------------------------------------------------------------------|
D|-2--------------------------------------------------------------------------|
A|-0--------------------------------------------------------------------------|
E|----------------------------------------------------------------------------|



2:45 - solo

e|-----------------------------------------11-10-----------------------------|
B|--------------------------6/8------11-------------13-13-11-11--------------|
G|-8\7-7-3h5p3----------5/7-------------12-------12--------------------------|
D|-------------5-5--3/5---------8-8------------------------------------------|
A|---------------------------------------------------------------------------|
E|---------------------------------------------------------------------------|

e|----------------------------------------------------10----8------6---------|
B|---------------------------------------------8h10p8------------------------|
G|-12-12-12-12-12-12-12-12-------10--10-10-10------------10---10\8-----------|
D|-------------------------12/13---------------------------------------------|
A|---------------------------------------------------------------------------|
E|---------------------------------------------------------------------------|

e|-----------------------15----13----11---10---------------------------------|
B|-----6-6/8-----6------------------------------13---------------------------|
G|-7/8-------7-8------12----12----10----8----------10/12-10--7---------------|
D|-----------------8-------------------------10----------------8-------------|
A|---------------------------------------------------------------------------|
E|---------------------------------------------------------------------------|


3:10 - chorus (this ones longer...you'll figure it out)

e|--------------------------15-15-15-15-15-15-15-15--------------------------|
B|-15-15-15-15-15-15-15-15--15-15-15-15-15-15-15-15--------------------------|
G|-15-15-15-15-15-15-15-15--12-12-12-12-12-12-12-12--------------------------|
D|-15-15-15-15-15-15-15-15---------------------------------------------------|
A|---------------------------------------------------------------------------|
E|---------------------------------------------------------------------------|

e|------(15)(15)-------------------------------------------------------------|
B|-------15--15-------(15)(15)-----------------------------------------------|
G|---------------------15--15---(0)---(0)------------------------------------|
D|-13-13---------13-13-----------8-8-8-8---(0)-------------------------------|
A|---------------------------------------10-10-10----------------------------|
E|---------------------------------------------------------------------------|

e|--------------------------15-15-15-15-15-15-15-15--------------------------|
B|-15-15-15-15-15-15-15-15--15-15-15-15-15-15-15-15--------------------------|
G|-15-15-15-15-15-15-15-15--12-12-12-12-12-12-12-12--------------------------|
D|-15-15-15-15-15-15-15-15---------------------------------------------------|
A|---------------------------------------------------------------------------|
E|---------------------------------------------------------------------------|

e|------(15)(15)-------------------------------------------------------------|
B|-------15--15-------(15)(15)-----------------------------------------------|
G|---------------------15--15---(0)---(0)------------------------------------|
D|-13-13---------13-13-----------8-8-8-8---(0)-------------------------------|
A|---------------------------------------10-10-10----------------------------|
E|---------------------------------------------------------------------------|

e|--------------------------15-15-15-15-15-15-15-15--------------------------|
B|-15-15-15-15-15-15-15-15--15-15-15-15-15-15-15-15--------------------------|
G|-15-15-15-15-15-15-15-15--12-12-12-12-12-12-12-12--------------------------|
D|-15-15-15-15-15-15-15-15---------------------------------------------------|
A|---------------------------------------------------------------------------|
E|---------------------------------------------------------------------------|

e|------(15)(15)-------------------------------------------------------------|
B|-------15--15-------(15)(15)-----------------------------------------------|
G|---------------------15--15---(0)---(0)------------------------------------|
D|-13-13---------13-13-----------8-8-8-8---(0)-------------------------------|
A|---------------------------------------10-10-10----------------------------|
E|---------------------------------------------------------------------------|

e|---------------------------------------------------------------------------|
B|---------------------------------------------------------------------------|
G|10-10-10-10-10-10-10-10--12-12--10-10-10-10--------------------------------|
D|-x--x--x--x--x--x--x--x---x--x--x--x--x--x---------------------------------|
A|-8--8--8--8--8--8--8--8--10-10--8--8--8--8---------------------------------|
E|---------------------------------------------------------------------------|



e|---------------------------------------------------------------------------|
B|---------------------------------------------------------------------------|
G|-8-8-8-8-8-8-8-8-7-7-7-7-7-7-7-7-------------------------------------------|
D|-x-x-x-x-x-x-x-x-x-x-x-x-x-x-x-x-------------------------------------------|
A|-6-6-6-6-6-6-6-6-5-5-5-5-5-5-5-5-------------------------------------------|
E|---------------------------------------------------------------------------|




************************************

| /   slide up
| \   slide down
| h   hammer-on
| p   pull-off
| ~   vibrato
| +   harmonic
| x   Mute note
| b   Bend
| pb  Pre-bend
| br  Bend release
| pbr Pre-bend release
| brb Bend release bend

************************************
Добавлено: 04.07.2013
Вам также может быть интересно:
Другие материалы по этой песне:
  • Аккорды и текст

Страница создана 04.07.2013
http://primanota.ru/bosnian-rainbows/torn-maps-chords.htm
Привет, Гость.
Предлагаем пройти революционный курс по гитаре.
Подарок от PrimaNota.Ru, забирай!