PrimaNota.ru - самый крупный в мире бесплатный архив песенных текстов, аккордов, табулатур и нот


Bosnian Rainbows - Fun - таба, видео

Регистрация Запомнить меня
Войти через:  Facebook Google Twitter Vk Yandex Mail.ru

Bosnian Rainbows - Fun - таба, видео

Печатать
Просмотров: 177
-------------------------------------------------------------------------------
     Fun - Bosnian Rainbows (http://www.facebook.com/BosnianRainbows)
-------------------------------------------------------------------------------
Tabbed by: nicouh
E-mail: http://profile.ultimate-guitar.com/nicouh/


The Album isn't released yet, so this is build on the live versions they've been
playing for over half a year now.
See: http://www.youtube.com/watch?v=wEPXUa6F3eM

Overall song structure as follows:
1 -> 2 -> 3 -> 2 -> 3 -> Guitar Solo (probably in Dm) -> 4 -> 1 -> first part of 3



The 4 Parts are:


1) Intro (on 2nd play, bend the last note slowly 2half steps up):
e|------------13-----------------------------------------------|
b|---------------15----------------------15---13~--------------|
G|---14--15------------15--14--12------------------------------|
D|---------------------------------12--------------------------|
A|-------------------------------------------------------------|
E|-------------------------------------------------------------|


2) Chords Part (Refrain) with weird effects (see "Rainbow Machine") and minimal picking.
   All Chords are played higher than the 5th fret.

   Dm - F - C - Dm (2 times)


3) Break:

   use some fast up&down
   strokes for this one,
       play 5 times______________________________________________
            |                                                    |
e|----------------|--------|------------------|---------------------------------|
b|---(10)----10---|--------|------------------|----------------(10)----10-------|
G|---(10)----10---|--------|------------------|----------------(10)----10-------|
D|-0--10h12--12---|--12\7--|---------7-7------|-------7-7-7-7---10h12--12-------|
A|----------------|--------|----8-8------5-5--|--8-8----------------------------|
E|---(10)---------|--10\5--|------------------|---------------------------------|


4) After-Solo Part/bridge. Chords are being played higher than the 5th fret again.

   Dm - C - Dm - C - Dm - Dm


************************************

| /   slide up
| \   slide down
| h   hammer-on
| p   pull-off
| ~   vibrato
| +   harmonic
| x   Mute note
| b   Bend
| pb  Pre-bend
| br  Bend release
| pbr Pre-bend release
| brb Bend release bend

************************************
Добавлено: 23.09.2013
Другие материалы по этой песне:
  • Аккорды и текст

Страница создана 23.09.2013
http://primanota.ru/bosnian-rainbows/fun-chords.htm
Привет, Гость.
Предлагаем пройти революционный курс по гитаре.
Подарок от PrimaNota.Ru, забирай!