PrimaNota.ru - самый крупный в мире бесплатный архив песенных текстов, аккордов, табулатур и нот


Bosco Rogers - The Middle - таба, видео

Регистрация Запомнить меня
Войти через:  Facebook Google Twitter Vk Yandex Mail.ru

Bosco Rogers - The Middle - таба, видео

Печатать
Просмотров: 24
Bosco Rogers - The Middle


Chords throughout the song:

Dm    G     A     Bb C        
-5----3-----5-----6--8------
-6----3-----5-----6--8------ 
-7----4-----6-----7--9------ 
-7----5-----7-----8--10-----  
-5----5-----7-----8--10-----  
------3-----5-----6--8------

(Intro)

I stay awake in the middle of a paradise
You're sleeping like a bird and it's fine
My love is good enough
You leave me and the truth
When I dream in your arms
Oh come, come, come on

(Solo I)

You go away in the middle of this burning mind
I'm aching like a dog and it's fine
My love was good enough
You leave me and the truth
When I cry all the day
Oh come, come, come on

(Whistling)

I stay awake in the middle of a paradise
You're sleeping like a bird and it's fine
My love is good enough
You leave me and the truth
When I dream in your arms
Oh come, come, come on

(Solo II)

You go away in the middle of this burning mind
I'm aching like a dog and it's fine
My love is good enough
You leave me and the truth
When I cry all the day

(Whistling & Outro)


Intro - play around with the chords to get something similar to this:
    Dm             G            A             Bb     C
e|----5---5----------10-----10-----5-----5--------6------8----------
B|--3----3-3-------8----8-8---------------------6-6----8-8----------
G|-----------------------------------6--------7---7--9---9----------
D|------------------------------/7-----7----------------------------
A|------------------------------------------------------------------
E|------------------------------------------------------------------

Solo I
----------------------------------------------6-5--------------
--5b6-3---3-3-3---5b6-3---3-3-3---3-5---3-5-3-----5------------
--------5---------------5-------6------------------------------
---------------------------------------------------------------
---------------------------------------------------------------
---------------------------------------------------------------

---------------------------------------------
--3~----------3~---3~------------------------
-----4~--6~------------4~--6~--3~--5~--------  
---------------------------------------------
---------------------------------------------
---------------------------------------------

Solo II
----------------------------------------------6-5--------------
--5b6-3---3-3-3---5b6-3---3-3-3---3-5---3-5-3-----5------------
--------5---------------5-------6------------------------------
---------------------------------------------------------------
---------------------------------------------------------------
---------------------------------------------------------------

-----------------------/5-5-5--------
--3~--------6---5---3---------3\-----
-----4~------------------------------
-------------------------------------
-------------------------------------
-------------------------------------

Outro
------------------------------------------------------------------------------
------------------------------------------------------------------------------
----------------22--------------------------------22--------------------------
----------3-5~-----55-33-22---232-----------3-5~----55-33-22--232------232----
--00-3-5-------------------5-----3---00-3-5-----------------5----3-5------3-5-
------------------------------------------------------------------------------

Добавлено: 07.05.2016
Другие материалы по этой песне:
  • Аккорды и текст

Страница создана 07.05.2016
http://primanota.ru/bosco-rogers/middle-chords.htm
Привет, Гость.
Предлагаем пройти революционный курс по гитаре.
Подарок от PrimaNota.Ru, забирай!