PrimaNota.ru - самый крупный в мире бесплатный архив песенных текстов, аккордов, табулатур и нот


Born Ruffians - Plinky Plonky - таба, видео

Регистрация Запомнить меня
Войти через:  Facebook Google Twitter Vk Yandex Mail.ru

Born Ruffians - Plinky Plonky - таба, видео

Печатать
Просмотров: 191
-------------------------------------------------------------------------------
                             PLINKY PLONKY - Born Ruffians
-------------------------------------------------------------------------------
Tuning: standard

   Intro/Verse
e|--------------------------------------------------------------------------------|
B|--------------------------------------------------------------------------------|
G|--------------------------------------------------------------------------------|
D|9--0----0--9--0----0--7--0----0--7--0--7(9)--0--5--0----0--5--0---0--5--0---0--5|
A|------7----------7----------7-------------------------7---------7---------7-----|
E|--------------------------------------------------------------------------------|

  Bridge/Chorus
    Bm    Am    G   Am
e|--7-----5----3-----5-------------------------------------------------------|
B|--7-----5----3-----5-------------------------------------------------------|
G|--7-----5----4-----5-------------------------------------------------------|
D|--9-----7----5-----7-------------------------------------------------------|
A|--9-----7----5-----7-------------------------------------------------------|
E|--7-----5----3-----5-------------------------------------------------------|

Daytrotter Intro (with slides)
e|-----------------------------------------------------------------------------|
B|-----------------------------------------------------------------------------|
G|-----------------------------------------------------------------------------|
D|-9--9--12---9---7--9-5-5-----------------------------------------------------|
A|-----------------------------------------------------------------------------|
E|-----------------------------------------------------------------------------|

What if you found out that you weren't so nice
And that you don't treat friends the way you should
And you don't take enough of your own advice
No one likes you anymore unless you get it together and change

What if you found out that your father lied
How there's no such thing as true love for life
But you go on looking, your heart in hand
He just wants his girl to have high standards and now you're looking for an invisible man

I need old friends, I need warmth in the middle
All that I need, all that I try, all that I need to know

What if you found out that you never died (You and me)
But that you go on to another life (You and me)
But that you don't take none of your old stuff there (You and me)
None of the people you cared about get to come, 'cause them's the rules (You and me)

I need old friends, I need warmth in the middle
Добавлено: 22.05.2012
Другие материалы по этой песне:
  • Аккорды и текст

Страница создана 31.03.2012
http://primanota.ru/born-ruffians/plinky-plonky-chords.htm
Привет, Гость.
Предлагаем пройти революционный курс по гитаре.
Подарок от PrimaNota.Ru, забирай!