PrimaNota.ru - самый крупный в мире бесплатный архив песенных текстов, аккордов, табулатур и нот


Born Ruffians - Little Garon - таба

Регистрация Запомнить меня
Войти через:  Facebook Google Twitter Vk Yandex Mail.ru

Born Ruffians - Little Garon - таба

Печатать
Просмотров: 146
Born Ruffians - Little Garçon

At 00:20 you start playing this chord:

-3--3--3--3--3-|
-4--4--4--4--4-|
-5--5--5--5--5-|
-5--5--5--5--5-|
-3--3--3--3--3-|
-3--3--3--3--3-|

in the same time, you have to do this:

-----------------------|
-----------------------|
-----------------------|
---5-------------------|
-6---3---6--5--5-3-3-6-|
-------6----------6----|

keep doing until 2:02 when the bass enter with this:

-----------------------------------------------|
-----------------------------------------------|
-----------------------------------------------|
-----------------------------------------------|
-----------------------------------------------|
-6--8-5-1--6-8-10-10-6-8-8-9-10--10-9-8-8-9-10-|

and the guitar starts to play together:

-------------------|
-3-3-3-3-3-3-3-3-3-|
-3-3-3-2-2-1-1-1-1-|
-3-3-3-3-3-3-3-3-3-|
-------------------|
-------------------|

-3--3--3--3----5--5--5--5-|
-4--4--4--4----6--6--6--6-|
-5--5--5--5----7--7--7--7-|
-5--5--5--5----7--7--7--7-|
-3--3--3--3----5--5--5--5-|
-3--3--3--3----5--5--5--5-|

keep doing that until the end of the song...

por marcelo figueiredo
indústria conde valdemar
Добавлено: 28.04.2012
Другие материалы по этой песне:
  • Аккорды и текст

Страница создана 28.04.2012
http://primanota.ru/born-ruffians/little-garon-chords.htm
Привет, Гость.
Предлагаем пройти революционный курс по гитаре.
Подарок от PrimaNota.Ru, забирай!