PrimaNota.ru - самый крупный в мире бесплатный архив песенных текстов, аккордов, табулатур и нот


Born From Pain - The Wolves Are Loose - текст песни, таба, видео

Регистрация Запомнить меня
Войти через:  Facebook Google Twitter Vk Yandex Mail.ru

Born From Pain - The Wolves Are Loose - текст песни, таба, видео

Печатать
Просмотров: 85
Its my first tab so please rate it:)


Guitar 1
                          (2x)
C#|-----------------------------------------------------------|
G#|-----------------------------------------------------------|
E |-----------------------------------------------------------|
B |-----------------------------------------------------------| 
F#|---0-------------------------------------------------------|
B |---0-------------------------------------------------------|

Guitar 2

C#|-----------------------------------------------------------|
G#|-----------------------------------------------------------|
E |---9h10p9---9----------------------------6-----------------|
B |----------12-12-11h12p11-8-11-8-7----7-8-------------------| 
F#|----------------------------------10-----------------------|
B |-----------------------------------------------------------|

G1
                              (1x)
C#|-----------------------------------------------------------|
G#|-----------------------------------------------------------|
E |-----------------------------------------------------------|
B |-----------------------------------------------------------| 
F#|---8-------------------------------------------------------|
B |---8-------------------------------------------------------|

G2

C#|-----------------------------------------------------------|
G#|-----------------------------------------------------------|
E |---9h10p9---9----------------------------6-----------------|
B |----------12-12-11h12p11-8-11-8-7----7-8-------------------| 
F#|----------------------------------10-----------------------|
B |-----------------------------------------------------------|

G1

C#|-----------------------------------------------------------|
G#|-----------------------------------------------------------|
E |-----------------------------------------------------------|
B |-----------------------------------------------------------| 
F#|---4-------------------------------------------------------|
B |---4-------------------------------------------------------|

G2

C#|-----------------------------------------------------------|
G#|-----------------------------------------------------------|
E |---9h10p9---9----------------------------6-----------------|
B |----------12-12-11h12p11-8-11-8-7----7-8-------------------| 
F#|----------------------------------10-----------------------|
B |-----------------------------------------------------------|
                         -Repeat whole 2x-
--------------------------------------------------------------------
Guitar 1
                          (2x)
C#|-----------------------------------------------------------|
G#|-----------------------------------------------------------|
E |-----------------------------------------------------------|
B |-----------------------------------------------------------| 
F#|---0-------------------------------------------------------|
B |---0-------------------------------------------------------|

Guitar 2

C#|-----------------------------------------------------------|
G#|-----------------------------------------------------------|
E |---9h10p9---9----------------------------6-----------------|
B |----------12-12-11h12p11-8-11-8-7----7-8-------------------| 
F#|----------------------------------10-----------------------|
B |-----------------------------------------------------------|

Guitar 3

C#|-----------------------------------------------------------|
G#|---8h10p8---8------------------------5---------------------|
E |----------10-10-9h10p9-6-9-6-5---5-6-----------------------|
B |-------------------------------8---------------------------| 
F#|-----------------------------------------------------------|
B |-----------------------------------------------------------|

G1
                             (1x)
C#|-----------------------------------------------------------|
G#|-----------------------------------------------------------|
E |-----------------------------------------------------------|
B |-----------------------------------------------------------| 
F#|---8-------------------------------------------------------|
B |---8-------------------------------------------------------|

G2

C#|-----------------------------------------------------------|
G#|-----------------------------------------------------------|
E |---9h10p9---9----------------------------6-----------------|
B |----------12-12-11h12p11-8-11-8-7----7-8-------------------| 
F#|----------------------------------10-----------------------|
B |-----------------------------------------------------------|

G3

C#|-----------------------------------------------------------|
G#|---8h10p8---8------------------------5---------------------|
E |----------10-10-9h10p9-6-9-6-5---5-6-----------------------|
B |-------------------------------8---------------------------| 
F#|-----------------------------------------------------------|
B |-----------------------------------------------------------|

G1

C#|-----------------------------------------------------------|
G#|-----------------------------------------------------------|
E |-----------------------------------------------------------|
B |-----------------------------------------------------------| 
F#|---11------------------------------------------------------|
B |---11------------------------------------------------------|

G2

C#|-----------------------------------------------------------|
G#|-----------------------------------------------------------|
E |---9h10p9---9----------------------------6-----------------|
B |----------12-12-11h12p11-8-11-8-7----7-8-------------------| 
F#|----------------------------------10-----------------------|
B |-----------------------------------------------------------|

G3

C#|-----------------------------------------------------------|
G#|---8h10p8---8------------------------5---------------------|
E |----------10-10-9h10p9-6-9-6-5---5-6-----------------------|
B |-------------------------------8---------------------------| 
F#|-----------------------------------------------------------|
B |-----------------------------------------------------------|

Refrain:
                            (4x)
C#|-----------------------------------------------------------|
G#|-----------------------------------------------------------|
E |-----------------------------------------------------------|
B |--------------------------------6-7-6----------------------| 
F#|---8-5-7--------------8-5-7-----4-5-4----------------------|
B |---8-5-7-7--7-7-7-7---8-5-7-7-7----------------------------|

                            (4x)
C#|-----------------------------------------------------------|
G#|-----------------------------------------------------------|
E |-----------------------------------------------------------|
B |---10-9-6-7------------------------------------------------| 
F#|---8--7-4-5------------------------------------------------|
B |------------0-0-0-0-0-0-0-0-0-0-0-0-0-0--------------------|

 
----------------------------------------------------------------
Guitar 1
                          (2x)
C#|-----------------------------------------------------------|
G#|-----------------------------------------------------------|
E |-----------------------------------------------------------|
B |-----------------------------------------------------------| 
F#|---0-------------------------------------------------------|
B |---0-------------------------------------------------------|

Guitar 2

C#|-----------------------------------------------------------|
G#|-----------------------------------------------------------|
E |---9h10p9---9----------------------------6-----------------|
B |----------12-12-11h12p11-8-11-8-7----7-8-------------------| 
F#|----------------------------------10-----------------------|
B |-----------------------------------------------------------|

G1
                             (1x)
C#|-----------------------------------------------------------|
G#|-----------------------------------------------------------|
E |-----------------------------------------------------------|
B |-----------------------------------------------------------| 
F#|---8-------------------------------------------------------|
B |---8-------------------------------------------------------|

G2

C#|-----------------------------------------------------------|
G#|-----------------------------------------------------------|
E |---9h10p9---9----------------------------6-----------------|
B |----------12-12-11h12p11-8-11-8-7----7-8-------------------| 
F#|----------------------------------10-----------------------|
B |-----------------------------------------------------------|

G3

C#|-----------------------------------------------------------|
G#|---8h10p8---8------------------------5---------------------|
E |----------10-10-9h10p9-6-9-6-5---5-6-----------------------|
B |-------------------------------8---------------------------| 
F#|-----------------------------------------------------------|
B |-----------------------------------------------------------|

G1

C#|-----------------------------------------------------------|
G#|-----------------------------------------------------------|
E |-----------------------------------------------------------|
B |-----------------------------------------------------------| 
F#|---11------------------------------------------------------|
B |---11------------------------------------------------------|

G2

C#|-----------------------------------------------------------|
G#|-----------------------------------------------------------|
E |---9h10p9---9----------------------------6-----------------|
B |----------12-12-11h12p11-8-11-8-7----7-8-------------------| 
F#|----------------------------------10-----------------------|
B |-----------------------------------------------------------|

G3

C#|-----------------------------------------------------------|
G#|---8h10p8---8------------------------5---------------------|
E |----------10-10-9h10p9-6-9-6-5---5-6-----------------------|
B |-------------------------------8---------------------------| 
F#|-----------------------------------------------------------|
B |-----------------------------------------------------------|

----------------------------------------------------------------------
                                 (4x)
C#|-------------------------------------------------------------------|
G#|-------------------------------------------------------------------|
E |-------------------------------------------------------------------|
B |---------------------------6-7-9-10-----------------------10-9-7-6-| 
F#|---------------------------4-5-7-8------------------------8--7-5-4-|
B |---0-0-000-0-0-000-0-0-000----------0-000-0-0-000-0-0-000----------|

                           (4x)
C#|-----------------------------------------------------------|
G#|-----------------------------------------------------------|
E |-----------------------------------------------------------|
B |--------------------------------6-7-6----------------------| 
F#|---8-5-7--------------8-5-7-----4-5-4----------------------|
B |---8-5-7-7--7-7-7-7---8-5-7-7-7----------------------------|

                            (4x)
C#|-----------------------------------------------------------|
G#|-----------------------------------------------------------|
E |-----------------------------------------------------------|
B |---10-9-6-7------------------------------------------------| 
F#|---8--7-4-5------------------------------------------------|
B |------------0-0-0-0-0-0-0-0-0-0-0-0-0-0--------------------|

                            (1x)
C#|-----------------------------------------------------------|
G#|-----------------------------------------------------------|
E |-----------------------------------------------------------|
B |---10-9-6-7------------------------------------------------| 
F#|---8--7-4-5------------------------------------------------|
B |-----------------------------------------------------------|





The end

Добавлено: 26.09.2013
Вам также может быть интересно:
Другие материалы по этой песне:
  • Аккорды и текст

Страница создана 26.09.2013
http://primanota.ru/born-from-pain/the-wolves-are-loose-chords.htm
Привет, Гость.
Предлагаем пройти революционный курс по гитаре.
Подарок от PrimaNota.Ru, забирай!