PrimaNota.ru - самый крупный в мире бесплатный архив песенных текстов, аккордов, табулатур и нот


Born From Pain - The War Is On - таба, видео

Регистрация Запомнить меня
Войти через:  Facebook Google Twitter Vk Yandex Mail.ru

Born From Pain - The War Is On - таба, видео

Печатать
Просмотров: 108
Уроки эстрадного вокала в Санкт-Петербурге
-------------------------------------------------------------------------------
                          The War Is On - Born From Pain
-------------------------------------------------------------------------------

ARTIST   : Born From Pain
SONG     : The War Is On
ALBUM    : War
TABBED BY: h8urlife
TUNING   : B F# B E G# C# 



Riff 1:

C#|-----------------------------------------------------------------|
G#|-----------------------------------------------------------------|
E |-----------7-7-7-------------------------------------------------|
B |-----------7-7-7-------------------------------------------------| 
F#|-1-0-------5-5-5-0---------1-1-1-1-0-------------5-5-5-5-5/8-8-8-|
B |-1-0-0-0-0-------0-0-0-0-0-1-1-1-1-0-0-0-0-0-0-0-5-5-5-5-5/8-8-8-|
        . . .         . . . .           . . . . . .      




Riff 2:

C#|---------------------------------------------------------|
G#|---------------------------------------------------------|
E |----7--5--7--9--7--5--7--------7--9----------10--12------|
B |---------------------------------------------------------|
F#|-0--5--3--5--7--5--3--5-----5--5--7---8-------8--10------|
B |-0----------------------0-0-5-------0-8--0-0---------0-0-|
                           . .         .    . .         . . 



Riff 3:

C#|---------------------------------------------------------|
G#|---------------------------------------------------------|
E |----------9------9------------5--------------------------|
B |----------9------9------------5--------------------------| 
F#|----------7------7------------3--------------------------|
B |-00000000-7--0-0-7---77777777-3--7-8-7-5--5-7-5-3--3-5-2-|
    ........    . .     ........ 



BFP rulez!!!

www.bornfrompain.com
Добавлено: 29.08.2013
Другие материалы по этой песне:
  • Аккорды и текст

Страница создана 29.08.2013
http://primanota.ru/born-from-pain/the-war-is-on-chords.htm
Привет, Гость.
Предлагаем пройти революционный курс по гитаре.
Подарок от PrimaNota.Ru, забирай!