PrimaNota.ru - самый крупный в мире бесплатный архив песенных текстов, аккордов, табулатур и нот


Born From Pain - The New Hate - текст песни, таба, видео

Регистрация Запомнить меня
Войти через:  Facebook Google Twitter Vk Yandex Mail.ru

Born From Pain - The New Hate - текст песни, таба, видео

Печатать
Просмотров: 155
Уроки эстрадного вокала в Санкт-Петербурге
-------------------------------------------------------------------------------
                          The New Hate - Born From Pain
-------------------------------------------------------------------------------

ARTIST   : Born From Pain
SONG     : The New Hate
ALBUM    : In Love With The End
TABBED BY: h8urlife
TUNING   : Standard  C# G# C# F# A# D#


Intro:

D#|--------------------------------------------------------------------|
A#|--------------------------------------------------------------------|
F#|--------------------------------------------------------------------|
C#|------5-6-5~--2-------5-6-5~--2-------5-6-5--2--2--2-3-5--6-5--2--2-|
G#|------5-6-5~--2-------5-6-5~--2-------5-6-5--2--2--2-3-5--6-5--2--2-|
C#|-0011-3-4-3~--0--0011-3-4-3~--0--0011-3-4-3--0--0--0-1-3--4-3--0--0-|
    ....         .  ....         .  ....        .  .              .  .

   ------------------------------------------------------|
   ------------------------------------------------------|
   ------------------------------------------------------|
   -2-3-5--6-5------------------2-3-5--6-5---------------|
   -2-3-5--6-5------------------2-3-5--6-5---------------|
   -0-1-3--4-3--0-0-0-0-0-0-0-0-0-1-3--4-3--000000000000-|
                . . . . . . . .             ............

                 (3x)                            (1x)
D#|----------------------------------|-----------------------------|
A#|----------------------------------|-----------------------------|
F#|----------------------------------|-----------------------------|
C#|-2-3-5--6-5-------2------2------2-|-2-3-5--6-5------2-----------|
G#|-2-3-5--6-5-------2------2------2-|-2-3-5--6-5------2-----------|
C#|-0-1-3--4-3--0000-0-0000-0-0000-0-|-0-1-3--4-3-0000-0-111444333-|
    . .         ....   ....   ....     . .        ....   .........

This is the....


                (3x)                            (1x)
D#|----------------------------------|-----------------------------|
A#|----------------------------------|-----------------------------|
F#|----------------------------------|-----------------------------|
C#|-2-3-5--6-5-------2------2------2-|-2-3-5--6-5------2-----------|
G#|-2-3-5--6-5-------2------2------2-|-2-3-5--6-5------2-----------|
C#|-0-1-3--4-3--0000-0-0000-0-0000-0-|-0-1-3--4-3-0000-0-111444333-|
    . .         ....   ....   ....     . .        ....   .........

Verse:


D#|------------------------------------------------------------------------------|
A#|------------------------------------------------------------------------------|
F#|------------------------------------------------------------------------------|
C#|------------------------------------------------------------------------------|
G#|------------------------------------------------------------------------------|
C#|-111111-000000-333333-000000-5555-8888-111111-000000-333333-0000000000-111111-|
    ...... ...... ...... ...... .... .... ...... ...... ...... .......... ......

   -----------------------------------------------------------------------|
   -----------------------------------------------------------------------|
   -------------------------------------------------------------------4-5-|
   -------------------------------------------------------------------4-5-|
   -------------------------------------------------------------------2-3-|
   -111111-000000-333333-000000-5555-8888-111111-000000-333333-000000-----|
    ...... ...... ...... ...... .... .... ...... ...... ...... ......

D#|------------------------------------------------------------------------------|
A#|------------------------------------------------------------------------------|
F#|------------------------------------------------------------------------------|
C#|------------------------------------------------------------------------------|
G#|------------------------------------------------------------------------------|
C#|-111111-000000-333333-000000-5555-8888-111111-000000-333333-0000000000-111111-|
    ...... ...... ...... ...... .... .... ...... ...... ...... .......... ......

   -----------------------------------------|
   -----------------------------------------|
   -----------------------------------------|
   ---------------------------------------2-|
   ---------------------------------------2-|
   -111111-000000-333333-000000-5555-8888-0-|
    ...... ...... ...... ...... .... ....

Refrain:

                               (2x)
D#|----------------------------------------------------------------|
A#|----------------------------------------------------------------|
F#|-4-5-5-------7~--4-5-5-------7~--4-5-5-------7~--4-5-5-----4-/7-|
C#|-4-5-5-2-2-2-7~--4-5-5-2-2-2-7~--4-5-5-2-2-2-7~--4-5-5-----4-/7-|
G#|-2-3-3-2-2-2-5~--2-3-3-2-2-2-5~--2-3-3-2-2-2-5~--2-3-3-2-2-2-/5-|
C#|-------0-0-0-----------0-0-0-----------0-0-0-----------0-0------|
                                                              .


Verse:


D#|------------------------------------------------------------------------------|
A#|------------------------------------------------------------------------------|
F#|------------------------------------------------------------------------------|
C#|------------------------------------------------------------------------------|
G#|------------------------------------------------------------------------------|
C#|-111111-000000-333333-000000-5555-8888-111111-000000-333333-0000000000-111111-|
    ...... ...... ...... ...... .... .... ...... ...... ...... .......... ......

   -----------------------------------------------------------------------|
   -----------------------------------------------------------------------|
   -------------------------------------------------------------------4-5-|
   -------------------------------------------------------------------4-5-|
   -------------------------------------------------------------------2-3-|
   -111111-000000-333333-000000-5555-8888-111111-000000-333333-000000-----|
    ...... ...... ...... ...... .... .... ...... ...... ...... ......

D#|------------------------------------------------------------------------------|
A#|------------------------------------------------------------------------------|
F#|------------------------------------------------------------------------------|
C#|------------------------------------------------------------------------------|
G#|------------------------------------------------------------------------------|
C#|-111111-000000-333333-000000-5555-8888-111111-000000-333333-0000000000-111111-|
    ...... ...... ...... ...... .... .... ...... ...... ...... .......... ......

   -----------------------------------------|
   -----------------------------------------|
   -----------------------------------------|
   ---------------------------------------2-|
   ---------------------------------------2-|
   -111111-000000-333333-000000-5555-8888-0-|
    ...... ...... ...... ...... .... ....

Refrain:

                               (2x)
D#|----------------------------------------------------------------|
A#|----------------------------------------------------------------|
F#|-4-5-5-------7~--4-5-5-------7~--4-5-5-------7~--4-5-5-----4-/7-|
C#|-4-5-5-2-2-2-7~--4-5-5-2-2-2-7~--4-5-5-2-2-2-7~--4-5-5-----4-/7-|
G#|-2-3-3-2-2-2-5~--2-3-3-2-2-2-5~--2-3-3-2-2-2-5~--2-3-3-2-2-2-/5-|
C#|-------0-0-0-----------0-0-0-----------0-0-0-----------0-0------|
                                                              .

Bridge:


D#|-------------------------------------------------------------------------------|
A#|-------------------------------------------------------------------------------|
F#|-10-9------------10-9-----12-10-10-9------------10-9-----12-10-10-9------------|
C#|-10-9------------10-9-----12-10-10-9------------10-9-----12-10-10-9------------|
G#|-8--7------------8--7-----10-8--8--7------------8--7-----10-8--8--7------------|
C#|------0000000000------000------------0000000000------000------------0000000000-|
         ..........      ...            ..........      ...            ...........
   ---------------------------------------------|
   ---------------------------------------------|
   -10-9-----12-10-10-9-------------------------|
   -10-9-----12-10-10-9-------------------------|
   -8--7-----10-8--8--7-------------------------|
   ------000-------------0000000000001133333333-|
         ...             ......................

                               (2x)
D#|----------------------------------------------------------------|
A#|----------------------------------------------------------------|
F#|-4-5-5-------7~--4-5-5-------7~--4-5-5-------7~--4-5-5-----4-/7-|
C#|-4-5-5-2-2-2-7~--4-5-5-2-2-2-7~--4-5-5-2-2-2-7~--4-5-5-----4-/7-|
G#|-2-3-3-2-2-2-5~--2-3-3-2-2-2-5~--2-3-3-2-2-2-5~--2-3-3-2-2-2-/5-|
C#|-------0-0-0-----------0-0-0-----------0-0-0-----------0-0------|
                                                              .

Outro:


                 (3x)                            (1x)
D#|----------------------------------|-----------------------------|
A#|----------------------------------|-----------------------------|
F#|----------------------------------|-----------------------------|
C#|-2-3-5--6-5-------2------2------2-|-2-3-5--6-5------2-----------|
G#|-2-3-5--6-5-------2------2------2-|-2-3-5--6-5------2-----------|
C#|-0-1-3--4-3--0000-0-0000-0-0000-0-|-0-1-3--4-3-0000-0-111444333-|
    . .         ....   ....   ....     . .        ....   .........

                 (3x)                        (1x)
D#|-------------------------------|---------------------------|
A#|-------------------------------|---------------------------|
F#|-------------------------------|---------------------------|
C#|-2-3-5--6-5------2-----2-----2-|-2-3-5--6-5-------2-2--2-2-|
G#|-2-3-5--6-5------2-----2-----2-|-2-3-5--6-5-------2-2--2-2-|
C#|-0-1-3--4-3--0-0-0-0-0-0-0-0-0-|-0-1-3--4-3--0-0--0-0--0-0-|
    . .         . .   . .   . .     . .         . .  . .  . .

The palm muted-points in the bridge and in the verse got a little
bit out of place.

BFP rulez!!!

www.bornfrompain.com
Добавлено: 08.01.2014
Другие материалы по этой песне:
  • Аккорды и текст

Страница создана 03.08.2013
http://primanota.ru/born-from-pain/the-new-hate-chords.htm
Привет, Гость.
Предлагаем пройти революционный курс по гитаре.
Подарок от PrimaNota.Ru, забирай!