PrimaNota.ru - самый крупный в мире бесплатный архив песенных текстов, аккордов, табулатур и нот


Born From Pain - The Hydra - текст песни, таба, видео

Регистрация Запомнить меня
Войти через:  Facebook Google Twitter Vk Yandex Mail.ru

Born From Pain - The Hydra - текст песни, таба, видео

Печатать
Просмотров: 73
-------------------------------------------------------------------------------
                          The Hydra - Born From Pain
-------------------------------------------------------------------------------

ARTIST   : Born From Pain
SONG     : The Hydra
ALBUM    : Survival
TABBED BY: h8urlife
TUNING   : B F# B E G# C# 


Verse:
               (7x)
C#|---------------------------------|
G#|---------------------------------|
E |-5-----8-----7-------------------|
B |-5-----8-----7-------------------|
F#|-3-----6-----5-------------------|
B |---0-0---0-0---0-0-0-0-0-0-0-0-0-|
      . .   . .   . . . . . . . . . 


 

                  (1x)
C#|----------------------------------------|
G#|----------------------------------------|
E |-------2~--------2~--------2~--------2~-|
B |-------2~--------2~--------2~--------2~-| 
F#|-1--1--0~--1--1--0~--1--1--0~--1--1--0~-|
B |-1--1------1--1------1--1------1--1-----|
    


Verse:
                (8x)
C#|---------------------------------|
G#|---------------------------------|
E |-5-----8-----7-------------------|
B |-5-----8-----7-------------------|
F#|-3-----6-----5-------------------|
B |---0-0---0-0---0-0-0-0-0-0-0-0-0-|
      . .   . .   . . . . . . . . . 


                  (1x)
C#|----------------------------------------|
G#|----------------------------------------|
E |-------2~--------2~--------2~--------2~-|
B |-------2~--------2~--------2~--------2~-| 
F#|-1--1--0~--1--1--0~--1--1--0~--1--1--0~-|
B |-1--1------1--1------1--1------1--1-----|






                  (3x)                                         
C#|---------------------------------------|-----------------------------|
G#|---------------------------------------|-----------------------------|
E |---------------------------------------|-----------------------------|
B |---------------------------------------|-4--4-5-4-8-7---4--4-5-4-8-7-|
F#|-0--0-1-0-4-3---0--0-1-0-4-3-----------|-----------------------------|
B |-0--0-1-0-4-3---0--0-1-0-4-3--33333333-|-----------------------------|
                                 ........



Verse:
                
C#|---------------------------------|
G#|---------------------------------|
E |-5-----8-----7-------------------|
B |-5-----8-----7-------------------|
F#|-3-----6-----5-------------------|
B |---0-0---0-0---0-0-0-0-0-0-0-0-0-|
  |   . .   . .   . . . . . . . . . 
  |          
  |      (4x)            (4x)
C#|------------------|-----------|
G#|------------------|-----------|
E |------------------|-----------|
B |------------------|-----------|
F#|-7-6-7-10--7-10-8-|-12--10--7-|
B |------------------|-----------|
      



                  (1x)
C#|----------------------------------------|
G#|----------------------------------------|
E |-------2~--------2~--------2~--------2~-|
B |-------2~--------2~--------2~--------2~-| 
F#|-1--1--0~--1--1--0~--1--1--0~--1--1--0~-|
B |-1--1------1--1------1--1------1--1-----|




                  (3x)                                         
C#|---------------------------------------|-----------------------------|
G#|---------------------------------------|-----------------------------|
E |---------------------------------------|-----------------------------|
B |---------------------------------------|-4--4-5-4-8-7---4--4-5-4-8-7-|
F#|-0--0-1-0-4-3---0--0-1-0-4-3-----------|-----------------------------|
B |-0--0-1-0-4-3---0--0-1-0-4-3--33333333-|-----------------------------|
                                 ........



BFP rulez!!!

www.bornfrompain.com
Добавлено: 28.01.2014
Другие материалы по этой песне:
  • Аккорды и текст

Страница создана 25.08.2013
http://primanota.ru/born-from-pain/the-hydra-chords.htm
Привет, Гость.
Предлагаем пройти революционный курс по гитаре.
Подарок от PrimaNota.Ru, забирай!