PrimaNota.ru - самый крупный в мире бесплатный архив песенных текстов, аккордов, табулатур и нот


Born From Pain - Suicide Nations - текст песни, таба, видео

Регистрация Запомнить меня
Войти через:  Facebook Google Twitter Vk Yandex Mail.ru

Born From Pain - Suicide Nations - текст песни, таба, видео

Печатать
Просмотров: 105
-------------------------------------------------------------------------------
		    Suicide Nations - Born From Pain
-------------------------------------------------------------------------------

ARTIST   : Born From Pain
SONG     : Suicide Nations
ALBUM    : In Love With The End
TABBED BY: h8urlife
C-TUNING : C-F-Bb-Eb-G-C

Intro:

C#|-----------------------------------|
G#|-----------------------------------|
E#|-----------------------------------|
B#|-----------------------------------|
F#|-6-5-6--5-3-5--2-2-2-2---------/7--|
C#|-4-3-4--3-1-3--0-0-0-0-000-000-/7--|
                          ... ...

Verse:

C#|---------------------------------------------------------------|
G#|---------------------------------------------------------------|
E#|---------------------------------------------------------------|
B#|------------------------------12---11---11/12---10---9---10\9--|
F#|---------------3--5--6--3-5---10---9----9-/10---8----7---8-\7--|
C#|-000-0-0-000-0-1--3--4--1/3-0----0----0-------0----0---0-------|
    ... . . ... .              .    .    .       .    .   .


Pre-Chorus:

C#|-------------------------------------------------------------|
G#|-------------------------------------------------------------|
E#|-------------------------------------------------------------|
B#|-----------------------7--9--10--10--10-9-7---7--7--9--10-9--|
F#|-2---------------------5--7--8---8---8--7-5---5--5--7--8--7--|
C#|-0-0-0-0-0-0-0-0-0-0-0-5--7--8---8---8--7-5---5--5--7--8--7--|
      . . . . . . . . . .

Chorus:

C#|-----------------------------------------------------------------|
G#|-----------------------------------------------------------------|
E#|-----------------------------------------------------------------|
B#|-----------------------------------------------------------------|
F#|--------------------------3---3-------------------------1--------|
C#|-00000000-0-0--0-0000-0-0-1-0-1-00000000-0-0--0-00001-3---3-1-0--|
    ........ . .  . .... . .   .   ........ . .  . ..... .   . . .

Verse:

C#|---------------------------------------------------------------|
G#|---------------------------------------------------------------|
E#|---------------------------------------------------------------|
B#|------------------------------12---11---11/12---10---9---10\9--|
F#|---------------3--5--6--3-5---10---9----9-/10---8----7---8-\7--|
C#|-000-0-0-000-0-1--3--4--1/3-0----0----0-------0----0---0-------|
    ... . . ... .              .    .    .       .    .   .

Pre-Chorus:

C#|-------------------------------------------------------------|
G#|-------------------------------------------------------------|
E#|-------------------------------------------------------------|
B#|-----------------------7--9--10--10--10-9-7---7--7--9--10-9--|
F#|-2---------------------5--7--8---8---8--7-5---5--5--7--8--7--|
C#|-0-0-0-0-0-0-0-0-0-0-0-5--7--8---8---8--7-5---5--5--7--8--7--|
      . . . . . . . . . .


Chorus:

C#|-----------------------------------------------------------------|
G#|-----------------------------------------------------------------|
E#|-----------------------------------------------------------------|
B#|-----------------------------------------------------------------|
F#|--------------------------3---3-------------------------1--------|
C#|-00000000-0-0--0-0000-0-0-1-0-1-00000000-0-0--0-00001-3---3-1-0--|
    ........ . .  . .... . .   .   ........ . .  . ..... .   . . .


Bridge:

C#|---------------------------------------------------------------------|
G#|---------------------------------------------------------------------|
E#|---------------------------------------------------------------------|
B#|---------------------------------------------------------------------|
F#|-2~-------------------------------2~---------------------------------|
C#|-0~---0-0-0-0-0-0-0-0-0-0-0-0-0-0-0~---0-0-0-0-0-0-0-0-0-0-0-0-0-0-0-|
         . . . . . . . . . . . . . .      . . . . . . . . . . . . . . .


Breakdown:

C#|--------------------------------------------------------------------|
G#|--------------------------------------------------------------------|
E#|--------------------------------------------------------------------|
B#|-10-9-----------7-9---------------10-9-------------10-9-9-7-7-9-9-7-|
F#|-8--7-----2-----5-7-------2-------8--7-----2-------8--7-7-5-5-7-7-5-|
C#|------0-0-0-0-0-----0-0-0-0-0-0-0------0-0-0-0-0-0------------------|
         . .   . .     . . .   . . .      . .   . . .

Under Solo:

C#|--------------------------------------------------------------------|
G#|--------------------------------------------------------------------|
E#|--------------------------------------------------------------------|
B#|-10-9-----------7-9---------------10-9-------------10-9-9-7-7-9-9-7-|
F#|-8--7-----2-----5-7-------2-------8--7-----2-------8--7-7-5-5-7-7-5-|
C#|------0-0-0-0-0-----0-0-0-0-0-0-0------0-0-0-0-0-0------------------|
         . .   . .     . . .   . . .      . .   . . .


Outro:

C#|-8-7--5-7--8-7---------------------------------13-12-12-10-10-12-12-10-13-12-|
G#|-----------------------------------------------------------------------------|
E#|----------------5-4-4-2-2-4-4-2-5-4--2-4--5-4--------------------------------|
B#|-----------------------------------------------------------------------------|
F#|-----------------------------------------------------------------------------|
C#|-----------------------------------------------------------------------------|


BFP rulez!!!
www.bornfrompain.com
www.myspace.com/bornfrompain
Добавлено: 20.11.2013
Другие материалы по этой песне:
  • Аккорды и текст

Страница создана 28.10.2013
http://primanota.ru/born-from-pain/suicide-nations-chords.htm
Привет, Гость.
Предлагаем пройти революционный курс по гитаре.
Подарок от PrimaNota.Ru, забирай!