PrimaNota.ru - самый крупный в мире бесплатный архив песенных текстов, аккордов, табулатур и нот


Born From Pain - Stop at Nothing - текст песни, таба, видео

Регистрация Запомнить меня
Войти через:  Facebook Google Twitter Vk Yandex Mail.ru

Born From Pain - Stop at Nothing - текст песни, таба, видео

Печатать
Просмотров: 85
-------------------------------------------------------------------------------
                          Stop At Nothing - Born From Pain
-------------------------------------------------------------------------------

ARTIST   : Born From Pain
SONG     : Stop At Nothing
ALBUM    : War
TABBED BY: h8urlife
TUNING   : B F# B E G# C# 



Intro:
                           
C#|----------------------------------------------------|
G#|----------------------------------------------------|
E |----------------------------------------------------|
B |----------------------------------------------------| 
F#|--------------------------------------------------0-|
B |-0-0-0--0-0-0--0-0-0--0-0-0--0-0-0--0-0-0--0-0-0--0-|
    . . .  . . .  . . .  . . .  . . .  . . .  . . .




Refrain:
                     (4x)
C#|--------------------------------------------|
G#|--------------------------------------------|
E |--------------------------------------------|
B |--------------------------------------------| 
F#|-0-3-0-0---5-5-5---8--8-8-8-----------------|
B |-0-3-0-0---5-5-5---8--8-8-8--77777788885555-|
                                ..............   




Verse:
            (16x)
C#|----------------------|
G#|----------------------|
E |----------------------|
B |----------------------| 
F#|----------------------|
B |---0000555588881111---|
      ................ 




Before Refrain:

C#|--------------------------------------------------------------------|
G#|--------------------------------------------------------------------|
E |--------------------------------------------------------------------|
B |-7-7-7-7-7-7-7-7--3-3-3-3-3-3-3-3-----------------------------------| 
F#|-5-5-5-5-5-5-5-5--1-1-1-1-1-1-1-1--1-1-1-1-1-1-1-1--3-3-3-3-3-3-3-3-|
B |-----------------------------------1-1-1-1-1-1-1-1--3-3-3-3-3-3-3-3-|




Refrain:
                     (2x)
C#|--------------------------------------------|
G#|--------------------------------------------|
E |--------------------------------------------|
B |--------------------------------------------| 
F#|-0-3-0-0---5-5-5---8--8-8-8-----------------|
B |-0-3-0-0---5-5-5---8--8-8-8--77777788885555-|
                                .............. 



C#|---------------------------------------|
G#|---------------------------------------|
E |---------------------------------------|
B |---------------------------------------| 
F#|---------------------------------------|
B |-000-000---000-000---000-000---000-000-|
    ... ...   ... ...   ... ...   ... ... 
                                  


Verse:
            (8x)
C#|-------------------------|
G#|-------------------------|
E |-------------------------|
B |-------------------------| 
F#|-------------------------|
B |----000-555-888-111------|
       ... ... ... ... 



Before Refrain:

C#|--------------------------------------------------------------------|
G#|--------------------------------------------------------------------|
E |--------------------------------------------------------------------|
B |-7-7-7-7-7-7-7-7--3-3-3-3-3-3-3-3-----------------------------------| 
F#|-5-5-5-5-5-5-5-5--1-1-1-1-1-1-1-1--1-1-1-1-1-1-1-1--3-3-3-3-3-3-3-3-|
B |-----------------------------------1-1-1-1-1-1-1-1--3-3-3-3-3-3-3-3-|




Refrain:
                     (4x)
C#|--------------------------------------------|----------------|
G#|--------------------------------------------|----------------|
E |--------------------------------------------|----------------|
B |--------------------------------------------|----------------|
F#|-0-3-0-0---5-5-5---8--8-8-8-----------------|----------------|
B |-0-3-0-0---5-5-5---8--8-8-8--77777788885555-|-77777788885555-|
                                ..............   ..............



Outro:

            (8x)                      (7x)
C#|-------------------------|------------------------|---------|
G#|-------------------------|------------------------|---------|
E |-------------------------|------------------------|---------|
B |-------------------------|------------------------|---------|
F#|-------------------------|------------------------|---------|
B |----000-555-888-111------|----0000555588881111----|-000-000-|
       ... ... ... ...           ................      ... ...




BFP rulez!!!

www.bornfrompain.com
Добавлено: 07.10.2013
Другие материалы по этой песне:
  • Аккорды и текст

Страница создана 07.10.2013
http://primanota.ru/born-from-pain/stop-at-nothing-chords.htm
Привет, Гость.
Предлагаем пройти революционный курс по гитаре.
Подарок от PrimaNota.Ru, забирай!