PrimaNota.ru - самый крупный в мире бесплатный архив песенных текстов, аккордов, табулатур и нот


Born From Pain - Sons Of A Dying World - текст песни, таба, видео

Регистрация Запомнить меня
Войти через:  Facebook Google Twitter Vk Yandex Mail.ru

Born From Pain - Sons Of A Dying World - текст песни, таба, видео

Печатать
Просмотров: 91
-------------------------------------------------------------------------------
	           Sons Of A Dying World - Born From Pain
-------------------------------------------------------------------------------

ARTIST   : Born From Pain
SONG     : Sons Of A Dying World
ALBUM    : Survival
TABBED BY: h8urlife
TUNING   : Standard  C# G# C# F# A# D# 



Intro and Chorus:

D#|------------------------------------------------|
A#|------------------------------------------------|
F#|------------------------------------------------|
C#|-5--4--7----4-7--7-5----------------------------|    
G#|---------7----------------------3-2-------------|   
C#|--------------------0-0-0-0-0-0-1-0-0-0-0-0-0-0-|   
                       . . . . . .     . . . . . .     
                                                       
                                                       
D#|------------------------------------------------|
A#|------------------------------------------------|
F#|-------------------4----------------------------|
C#|-5--4--7----4-7--7------------------------------|
G#|---------7----------------------3-2-------------|
C#|--------------------0-0-0-0-0-0-1-0-0-0-0-0-0-0-|
                       . . . . . .     . . . . . . 



Verse:

D#|-----------------------------------------------------------|
A#|-----------------------------------------------------------|
F#|-----------------------------------------------------------|---|
C#|-----------------------------------------------------------|   |
G#|-----------------------------------------------------------|   |
C#|-888888000000555500000033335555888800000055550000011331100-|   |
    .........................................................     |
                                                                  |(2x)
                                                                  |
D#|-----------------------------------------------------------|   |
A#|-----------------------------------------------------------|   |
F#|-----------------------------------------------------------|   |
C#|-----------------------------------------------------------|---|
G#|-----------------------------------------------------------|
C#|-888888000000555500000033335555888800000033330000000000000-|
    ......................................................... 




D#|----------------------------------|
A#|----------------------------------|
F#|----------------------------------|
C#|----------------------------------|
G#|-5-5-5-5-5-5-5-5-5-4-4-4-7-7-7----|
C#|-3-3-3-3-3-3-3-3-3-2-2-2-5-5-5----|
    . . . . . . . . . . . . . . .                      



Chorus:

D#|------------------------------------------------|
A#|------------------------------------------------|
F#|------------------------------------------------|
C#|-5--4--7----4-7--7-5----------------------------|    
G#|---------7----------------------3-2-------------|   
C#|--------------------0-0-0-0-0-0-1-0-0-0-0-0-0-0-|   
                       . . . . . .     . . . . . .     
                                                       
                                                       
D#|------------------------------------------------|
A#|------------------------------------------------|
F#|-------------------4----------------------------|
C#|-5--4--7----4-7--7------------------------------|
G#|---------7----------------------3-2-------------|
C#|--------------------0-0-0-0-0-0-1-0-0-0-0-0-0-0-|
                       . . . . . .     . . . . . . 




Verse:

D#|-----------------------------------------------------------|
A#|-----------------------------------------------------------|
F#|-----------------------------------------------------------|---|
C#|-----------------------------------------------------------|   |
G#|-----------------------------------------------------------|   |
C#|-888888000000555500000033335555888800000055550000011331100-|   |
    .........................................................     |
                                                                  |(1x)
                                                                  |
D#|-----------------------------------------------------------|   |
A#|-----------------------------------------------------------|   |
F#|-----------------------------------------------------------|   |
C#|-----------------------------------------------------------|---|
G#|-----------------------------------------------------------|
C#|-888888000000555500000033335555888800000033330000000000000-|
    ......................................................... 



D#|----------------------------------|
A#|----------------------------------|
F#|----------------------------------|
C#|----------------------------------|
G#|-5-5-5-5-5-5-5-5-5-4-4-4-7-7-7----|
C#|-3-3-3-3-3-3-3-3-3-2-2-2-5-5-5----|
    . . . . . . . . . . . . . . .  



Chorus:

D#|------------------------------------------------|
A#|------------------------------------------------|
F#|------------------------------------------------|
C#|-5--4--7----4-7--7-5----------------------------|    
G#|---------7----------------------3-2-------------|   
C#|--------------------0-0-0-0-0-0-1-0-0-0-0-0-0-0-|   
                       . . . . . .     . . . . . .     
                                                       
                                                       
D#|------------------------------------------------|
A#|------------------------------------------------|
F#|-------------------4----------------------------|
C#|-5--4--7----4-7--7------------------------------|
G#|---------7----------------------3-2-------------|
C#|--------------------0-0-0-0-0-0-1-0-0-0-0-0-0-0-|
                       . . . . . .     . . . . . . 



Bridge:
                (2x)
D#|----------------------------------|
A#|----------------------------------|
F#|----------------------------------|
C#|---------5~--------------7~--5~---|
G#|-2~------3~------2~------5~--3~---|
C#|-0~--0-0-----0-0-0~--0-0----------|
        . .     . .     . .        



Under Solo:
                        (2x)
D#|----------------------------------------------------|
A#|----------------------------------------------------|
F#|----------------------------------------------------|
C#|-9--7--10-5--7--10-10-9-----------------------------|
G#|-7--5--8--3--5--8--8--7-------------3-2-------------|
C#|------------------------0-0-0-0-0-0-1-0-0-0-0-0-0-0-|
                           . . . . . .     . . . . . .         





Chorus:

D#|------------------------------------------------|
A#|------------------------------------------------|
F#|------------------------------------------------|
C#|-5--4--7----4-7--7-5----------------------------|    
G#|---------7----------------------3-2-------------|   
C#|--------------------0-0-0-0-0-0-1-0-0-0-0-0-0-0-|   
                       . . . . . .     . . . . . .     
                                                       
                                                       
D#|------------------------------------------------|
A#|------------------------------------------------|
F#|-------------------4----------------------------|
C#|-5--4--7----4-7--7------------------------------|
G#|---------7----------------------3-2-------------|
C#|--------------------0-0-0-0-0-0-1-0-0-0-0-0-0-0-|
                       . . . . . .     . . . . . .




BFP rulez!!!

www.bornfrompain.com

Добавлено: 09.07.2013
Другие материалы по этой песне:
  • Аккорды и текст

Страница создана 09.07.2013
http://primanota.ru/born-from-pain/sons-of-a-dying-world-chords.htm
Привет, Гость.
Предлагаем пройти революционный курс по гитаре.
Подарок от PrimaNota.Ru, забирай!