PrimaNota.ru - самый крупный в мире бесплатный архив песенных текстов, аккордов, табулатур и нот


Born From Pain - Rising Tide - текст песни, таба, видео

Регистрация Запомнить меня
Войти через:  Facebook Google Twitter Vk Yandex Mail.ru

Born From Pain - Rising Tide - текст песни, таба, видео

Печатать
Просмотров: 124
-------------------------------------------------------------------------------
		    Rising Tide - Born From Pain
-------------------------------------------------------------------------------

ARTIST   : Born From Pain
SONG     : Rising Tide
ALBUM    : Sands Of Time
TABBED BY: h8urlife
C-TUNING : C-F-Bb-Eb-G-C




Intro: 
           (3x)                     (1x)
|------------------------|--------------------------|	
|------------------------|--------------------------|
|------------------------|--------------------------|
|-------------------5--5-|---4~-----4/3-------------|
|-2--2-----2--2-----3--3-|---2~-----4/3-3-4-4-3-4-2-|
|-0--0-0-0-0--0-0-0-3--3-|-0-2~---0-----1-3-2-1-2-0-|
       . .      . .        .      .     . . . . . .   



           (3x)                     (1x)
|------------------------|--------------------------|	
|------------------------|--------------------------|
|------------------------|--------------------------|
|-------------------5--5-|---4~-----4/3-------------|
|-2--2-----2--2-----3--3-|---2~-----4/3-3-4-4-3-4-2-|
|-0--0-0-0-0--0-0-0-3--3-|-0-2~---0-----1-3-2-1-2-0-|
       . .      . .        .      .     . . . . . . 



           (3x)
|------------------------|---------|	
|------------------------|---------|
|------------------------|---------|
|-------------------5--5-|---3~----|
|-2--2-----2--2-----3--3-|---1~----|
|-0--0-0-0-0--0-0-0-3--3-|-0-1~----|
       . .      . .        .   




Verse:

D#|----------------------------------------------------------------|
A#|----------------------------------------------------------------|
F#|----------------------------------------------------------------|
C#|----------------------------------------------------------------| 
G#|-2----------4------4-------------5/4--------------3~----6---3-5-|
C#|-0-00000000-2-0000-2-00000000000-3/2-222222222222-1~--0-4-0-1/3-|
      ........   ....   ...........     ............     .   .   





Bridge:

D#|---------------------------------|
A#|---------------------------------|
F#|---------------------------------|
C#|-2-3-2-1---------2-3-2-1-----2---| 
G#|-2-3-2-1---------2-3-2-1-----2---|
C#|---------0-0-0-0---------0-0-----|
    . . . . . . . . . . . . . .    




Verse:

D#|----------------------------------------------------------------|
A#|----------------------------------------------------------------|
F#|----------------------------------------------------------------|
C#|----------------------------------------------------------------| 
G#|-2----------4------4-------------5/4--------------3~----6---3-5-|
C#|-0-00000000-2-0000-2-00000000000-3/2-222222222222-1~--0-4-0-1/3-|
      ........   ....   ...........     ............     .   .   





Bridge:

D#|---------------------------------|
A#|---------------------------------|
F#|---------------------------------|
C#|-2-3-2-1---------2-3-2-1-----2---| 
G#|-2-3-2-1---------2-3-2-1-----2---|
C#|---------0-0-0-0---------0-0-----|
    . . . . . . . . . . . . . . 





Before Break:

D#|-------------------------------------------------|
A#|-------------------------------------------------|
F#|-------------------------------------------------|
C#|-----------8/7---------------------8/7-----------| 
G#|-2~--------6/5---5-------2~--------6/5---5-------|
C#|-0~----000-----0-3-0-1-3-0~----000-----0-3-0-1-3-|
          ...     .   . . .       ...     .   . . .  




Breakdown:
            (FIGHT THE RISING TIDE!!!)
D#|-----------------------------------------------|
A#|-----------------------------------------------|
F#|-----------------------------------------------|
C#|---------------------------------8/7-----------| 
G#|---------------------------------6/5---5-------|
C#|-00000-0--000000-0--00000-0--000-----0-3-0-1-3-|
    ..... .  ...... .  ..... .  ...     .   . . .    


D#|--------------------------------------------------|
A#|--------------------------------------------------|
F#|--------------------------------------------------|
C#|---------2----------1---------2-----8/7-----------| 
G#|---------2----------1---------2-----6/5---5-------|
C#|-00000-0---000000-0---00000-0---000-----0-3-0-1-3-|
    ..... .   ...... .   ..... .   ...       .   . . .     





Verse:

D#|----------------------------------------------------------------|
A#|----------------------------------------------------------------|
F#|----------------------------------------------------------------|
C#|----------------------------------------------------------------| 
G#|-2----------4------4-------------5/4--------------3~----6---3-5-|
C#|-0-00000000-2-0000-2-00000000000-3/2-222222222222-1~--0-4-0-1/3-|
      ........   ....   ...........     ............     .   .  







BFP rulez!!!
www.bornfrompain.com
www.myspace.com/bornfrompain 
    
Добавлено: 02.06.2013
Другие материалы по этой песне:
  • Аккорды и текст

Страница создана 02.06.2012
http://primanota.ru/born-from-pain/rising-tide-chords.htm
Привет, Гость.
Предлагаем пройти революционный курс по гитаре.
Подарок от PrimaNota.Ru, забирай!