PrimaNota.ru - самый крупный в мире бесплатный архив песенных текстов, аккордов, табулатур и нот


Born From Pain - Rise Or Die - текст песни, таба, бас-таба, видео

Регистрация Запомнить меня
Войти через:  Facebook Google Twitter Vk Yandex Mail.ru

Born From Pain - Rise Or Die - текст песни, таба, бас-таба, видео

Печатать
Просмотров: 202
-------------------------------------------------------------------------------
			  Rise Or Die - Born From Pain
-------------------------------------------------------------------------------

ARTIST   : Born From Pain
SONG     : Rise Or Die
ALBUM    : In Love With The End
TABBED BY: h8urlife
TUNING   : Standard  C# G# C# F# A# D#


Intro:
                                             (3x)                                        
    (1x)
D#|---------------------------------------------------------------------------------------|-------|
A#|---------------------------------------------------------------------------------------|-------|
F#|---------------------------------------------------------------------------------------|-------|
C#|---------------------------------------------------------------------------------------|-------|
G#|---------------------------------------------------------------------------------------|-1/6~\-|
C#|000-000-000-000-111-444-111-000-000-000-000-000-111-111-111-111-111-444-111-000-000-000-|-1/6~\|
    ... ... ... ... ... ... ... ... ... ... ... ... ... ... ... ... ... ... ... ... ... ...


Verse:

D#|--------------------------------------------------------------|
A#|--------------------------------------------------------------|
F#|--------------------------------------------------------------|
C#|-----2---2-----1---1---1----1/2-----6---6-----5---5-----------|
G#|-----2---2-----1---1---1----1/2-----6---6-----5---5-----------|
C#|-0-0---0---0-0---0---0----0-----0-0---0---0-0---0---0-1-3-1-0-|
    . .   .   . .   .   .    .     . .   .   . .   .   . . . . .


Chorus:

D#|----------------------------------------------------------|
A#|----------------------------------------------------------|
F#|----------------------------------------------------------|
C#|-------------1-1-1-1/2-2-2-------------1-1-1-1/2-2-2------|
G#|-3-2-2--3-2--1-1-1-1/2-2-2-3-2-2--3-2--1-1-1-1/2-2-2------|
C#|-1-0-0--1-0----------------1-0-0--1-0---------------------|
  |
   ----------------------------------------------------------|
   ----------------------------------------------------------|
   ----------------------------------------------------------|
   -------------1-1-1-1/2-2-2--------------------------------|
   -3-2-2--3-2--1-1-1-1/2-2-2-----6---6-----5---5------------|
   -1-0-0--1-0----------------0-0-6-0-6-0-0-5-0-5--0-1-3-1-0-|
                              . .   .   . .   .    . . . . .

Verse:(1x)


Chorus:(1x)


Bridge:

D#|------------------------------------------------------------------------|
A#|------------------------------------------------------------------------|
F#|------------------------------------------------------------------------|
C#|------------------------------------------------------------------------|
G#|------------------------------------------------------------------------|
C#|-0-0-12-0-0-10-0-0-13-0-0-12-0-0-12~--0-0-12-0-0-10-0-0-15~--15-15-14~--|

D#|--------------------------------------------------------------------|
A#|--------------------------------------------------------------------|
F#|--------------------------------------------------------------------|
C#|--------------------------------------------------------5~--5-5-4~--|
G#|--------------------------------------------------------5~--5-5-4~--|
C#|-0-0-12-0-0-10-0-0-13-0-0-12-0-0-12~--0-0-12-0-0-10-0-0-3~--3-3-2~--|


D#|------------------------------------------------------------|
A#|------------------------------------------------------------|
F#|-----9-----7-----10----------9-9-----9-----7----------------|
C#|-----9-----7-----10----------9-9-----9-----7-----5~--5-5-4~-|
G#|-----7-----5-----8-----------7-7-----7-----5-----5~--5-5-4~-|
C#|-0-0---0-0---0-0---0-0-0-000-----0-0---0-0---0-0-3~--3-3-2~-|
    . .   . .   . .   . . . ...     . .   . .   . .


Outro:

                                             (3x)                                        
    (1x)
D#|---------------------------------------------------------------------------------------|-------|
A#|---------------------------------------------------------------------------------------|-------|
F#|---------------------------------------------------------------------------------------|-------|
C#|---------------------------------------------------------------------------------------|-------|
G#|---------------------------------------------------------------------------------------|-1/6~\-|
C#-000-000-000-000-111-444-111-000-000-000-000-000-111-111-111-111-111-444-111-000-000-000-|-1/6~\|
    ... ... ... ... ... ... ... ... ... ... ... ... ... ... ... ... ... ... ... ... ... ...

Born From Pain rulez!!!!
Добавлено: 07.10.2013
Другие материалы по этой песне:
  • Аккорды и текст

Страница создана 21.08.2013
http://primanota.ru/born-from-pain/rise-or-die-chords.htm
Привет, Гость.
Предлагаем пройти революционный курс по гитаре.
Подарок от PrimaNota.Ru, забирай!