PrimaNota.ru - самый крупный в мире бесплатный архив песенных текстов, аккордов, табулатур и нот


Born From Pain - Relentless - текст песни, таба, видео

Регистрация Запомнить меня
Войти через:  Facebook Google Twitter Vk Yandex Mail.ru

Born From Pain - Relentless - текст песни, таба, видео

Печатать
Просмотров: 76
-------------------------------------------------------------------------------
			  Relentless - Born From Pain
-------------------------------------------------------------------------------

ARTIST   : Born From Pain
SONG     : Relentless
ALBUM    : War
TABBED BY: h8urlife
TUNING   : Standard  C# G# C# F# A# D# 






Intro and Chorus:
                               
D#|-------------------------------------------------------------------------------------|
A#|-------------------------------------------------------------------------------------|
F#|-------------------------------------------------------------------------------------|
C#|-------------------------------------------------------------------------------------| 
G#|-5-3---------3-2---------------------------5-3---------3-6---------------------------|
C#|-3-1-1-1-1-1-1-0-0-0-0-0-0-0-0-0-0-0-0-0-0-3-1-1-1-1-1-1-4-4-4-4-4-4-4-4-4-4-4-4-4-4-|
        . . . .     . . . . . . . . . . . . .     . . . .     . . . . . . . .   





D#|--------------------------------------------------------------------|
A#|--------------------------------------------------------------------|
F#|-5-7-5-4-5-4-----5-7-5-4-5-7-8~--5-7-5-4-5-4------5-7-5-4-5-7-8--10-|
C#|-------------5~-------------------------------5~--------------------| 
G#|-3-5-3-2-3-2-----3-5-3-2-3-5-6~--3-5-3-2-3-2------3-5-3-2-3-5-6--8--|
C#|-------------3~-------------------------------3~--------------------|  



Chorus:

D#|-------------------------------------------------------------------------------------|
A#|-------------------------------------------------------------------------------------|
F#|-------------------------------------------------------------------------------------|
C#|-------------------------------------------------------------------------------------| 
G#|-5-3---------3-2---------------------------5-3---------3-6---------------------------|
C#|-3-1-1-1-1-1-1-0-0-0-0-0-0-0-0-0-0-0-0-0-0-3-1-1-1-1-1-1-4-4-4-4-4-4-4-4-4-4-4-4-4-4-|
        . . . .     . . . . . . . . . . . . .     . . . .     . . . . . . . . 



Bridge:
                  (3x)                          (1x)
D#|-------------------------------------|-------------------|
A#|-------------------------------------|-------------------|
F#|-------------------------------------|-------------------|
C#|---------------------------7-7-7-----|-------------------|
G#|-5-4-----------2---3---5---5-5-5-----|-5-4-----------3~--|
C#|-3-2-2-2-2-2-2-0-0-1-0-3-0-----------|-3-2-2-2-2-2-2-1~--|
        . . . . .   .   .   .                 . . . . .       




Chorus:

D#|-------------------------------------------------------------------------------------|
A#|-------------------------------------------------------------------------------------|
F#|-------------------------------------------------------------------------------------|
C#|-------------------------------------------------------------------------------------| 
G#|-5-3---------3-2---------------------------5-3---------3-6---------------------------|
C#|-3-1-1-1-1-1-1-0-0-0-0-0-0-0-0-0-0-0-0-0-0-3-1-1-1-1-1-1-4-4-4-4-4-4-4-4-4-4-4-4-4-4-|
        . . . .     . . . . . . . . . . . . .     . . . .     . . . . . . . . . . . . .



Bridge:
                  (3x)                          (1x)
D#|-------------------------------------|-------------------|
A#|-------------------------------------|-------------------|
F#|-------------------------------------|-------------------|
C#|---------------------------7-7-7-----|-------------------|
G#|-5-4-----------2---3---5---5-5-5-----|-5-4-----------3~--|
C#|-3-2-2-2-2-2-2-0-0-1-0-3-0-----------|-3-2-2-2-2-2-2-1~--|
        . . . . .   .   .   .                 . . . . .   




D#|--------------------------------------------------------------------|
A#|--------------------------------------------------------------------|
F#|-5-7-5-4-5-4-----5-7-5-4-5-7-8~--5-7-5-4-5-4------5-7-5-4-5-7-8--10-|
C#|-------------5~-------------------------------5~--------------------| 
G#|-3-5-3-2-3-2-----3-5-3-2-3-5-6~--3-5-3-2-3-2------3-5-3-2-3-5-6--8--|
C#|-------------3~-------------------------------3~--------------------|  




Under Solo:

D#|---------------------------------------------------------|
A#|---------------------------------------------------------|
F#|---------------------------------------------------------|
C#|---------------------------------------------------------| 
G#|-5-3--3-2-2~---5-3--3-5-6~---5-3--3-2-2~---5-3--3-5-6~---|
C#|-3-1--1-0-0~---3-1--1-3-4~---3-1--1-0-0~---3-1--1-3-4~---| 


Solo:

D#|--------------------------------------------------------------------------------|
A#|---------------12121212-10101010-8888-7777--7-8-10-8-10-12-10-12-13-12-13-15-16-|
F#|--------------------------------------------------------------------------------|
C#|-5-7-7--7/9-9-------------------------------------------------------------------| 
G#|--------------------------------------------------------------------------------|
C#|--------------------------------------------------------------------------------|



D#|--------------------------------------------8-10-8-7-8-10-^10--10-8-10-11-^13---|
A#|---------------12121212-10101010-8888-7777--------------------------------------|
F#|--------------------------------------------------------------------------------|
C#|-5-7-7--7/9-9-------------------------------------------------------------------| 
G#|--------------------------------------------------------------------------------|
C#|--------------------------------------------------------------------------------|





End:

D#|-------------------------------------------------------------------------------------|
A#|-------------------------------------------------------------------------------------|
F#|-------------------------------------------------------------------------------------|
C#|-------------------------------------------------------------------------------------| 
G#|-5-3---------3-2---------------------------5-3---------3-6---------------------------|
C#|-3-1-1-1-1-1-1-0-0-0-0-0-0-0-0-0-0-0-0-0-0-3-1-1-1-1-1-1-4-4-4-4-4-4-4-4-4-4-4-4-4-4-|
        . . . .     . . . . . . . . . . . . .     . . . .     . . . . . . . . 


Добавлено: 22.10.2013
Другие материалы по этой песне:
  • Аккорды и текст

Страница создана 22.10.2013
http://primanota.ru/born-from-pain/relentless-chords.htm
Привет, Гость.
Предлагаем пройти революционный курс по гитаре.
Подарок от PrimaNota.Ru, забирай!