PrimaNota.ru - самый крупный в мире бесплатный архив песенных текстов, аккордов, табулатур и нот


Born From Pain - Kill It Tonight - текст песни, таба, видео

Регистрация Запомнить меня
Войти через:  Facebook Google Twitter Vk Yandex Mail.ru

Born From Pain - Kill It Tonight - текст песни, таба, видео

Печатать
Просмотров: 94
-------------------------------------------------------------------------------
		    Kill It Tonight - Born From Pain
-------------------------------------------------------------------------------

ARTIST   : Born From Pain
SONG     : Kill It Tonight
ALBUM    : In Love With The End
TABBED BY: h8urlife
C-TUNING : C-F-Bb-Eb-G-C


Intro:

C#|------------------------------------------------|
G#|------------------------------------------------|
E#|------------------------------------------------|
B#|-------5---5~-----5-7-7--------5---5~----5-7-7--|
F#|-2~--2-3-2-3~---2-3-5-5--2~--2-3-2-3~--2-3-5-5--|
C#|-0~--0-3-0-3~---0-3-5-5--0~--0-3-0-3~--0-3-5-5--|


C#|------------------------------------------------|
G#|------------------------------------------------|
E#|------------------------------------------------|
B#|-------5---5------5-7-7--6--6-----10~--10-6--8--|
F#|-2~--2-3-2-3----2-3-5-5--4--4-----8~---8--4--6--|
C#|-0~--0-3-0-3~---0-3-5-5--4--4-0-0-8~---8--4--6--|
                                 . .

Verse:

C#|-----------------------------------------------------------------|
G#|-----------------------------------------------------------------|
E#|-----------------------------------------------------------------|
B#|-----------------------------------------------------------------|
F#|-3-5-3-------2---------------3-5-4-------2-------666-555-------^-|
C#|-1-3-1-0-0-0-0-0-0-0-000-000-1-3-1-0-0-0-0-0-0-0---------2-5-3-3-|
          . . .   . . . ... ...       . . .   . . . ... ... . . .

Chorus:

C#|--------------------------------------------------------------------|
G#|--------------------------------------------------------------------|
E#|------------------------------------------------------8---8---5-7---|
B#|-------7~-----10~----5-4-----------------5~----7~-----6---6---3-5---|
F#|-2~----5~-----8~-----3-2-----4-5---2~----3~----5~-------------------|
C#|-0~--0-5~---0-8~---0-----0-0-2-3-0-0~--0-----0------0---0---0-----0-|
        .      .      .     . .     .     .     .      .   .   .     .

C#|------------------------------------------------------------------------|
G#|------------------------------------------------------------------------|
E#|------------------------------------------------------------------------|
B#|-9-----------10-----------13---------------------------------7~-----10~-|
F#|-7-----------8------------11---------------------------2~----5~-----8~--|
C#|---0-0-0-0-0----0-0-0-0-0----0-0-0-0-0-0-5-3-2-0-2-3-2-0~--0-5~---0-8~--|
      . . . . .    . . . . .    . . . . . . . . . . . . .     .      .

Verse:

C#|-----------------------------------------------------------------|
G#|-----------------------------------------------------------------|
E#|-----------------------------------------------------------------|
B#|-----------------------------------------------------------------|
F#|-3-5-3-------2---------------3-5-4-------2-------666-555-------^-|
C#|-1-3-1-0-0-0-0-0-0-0-000-000-1-3-1-0-0-0-0-0-0-0---------2-5-3-3-|
          . . .   . . . ... ...       . . .   . . . ... ... . . .

Chorus:

C#|--------------------------------------------------------------------|
G#|--------------------------------------------------------------------|
E#|------------------------------------------------------8---8---5-7---|
B#|-------7~-----10~----5-4-----------------5~----7~-----6---6---3-5---|
F#|-2~----5~-----8~-----3-2-----4-5---2~----3~----5~-------------------|
C#|-0~--0-5~---0-8~---0-----0-0-2-3-0-0~--0-----0------0---0---0-----0-|
        .      .      .     . .     .     .     .      .   .   .     .

C#|------------------------------------------------------------------------|
G#|------------------------------------------------------------------------|
E#|------------------------------------------------------------------------|
B#|-9-----------10-----------13---------------------------------7~-----10~-|
F#|-7-----------8------------11---------------------------2~----5~-----8~--|
C#|---0-0-0-0-0----0-0-0-0-0----0-0-0-0-0-0-5-3-2-0-2-3-2-0~--0-5~---0-8~--|
      . . . . .    . . . . .    . . . . . . . . . . . . .     .      .


Under Solo:

C#|--------------------------------------------------------------------|
G#|--------------------------------------------------------------------|
E#|------------------------------------------------------8---8---5-7---|
B#|-------7~-----10~----5-4-----------------5~----7~-----6---6---3-5---|
F#|-2~----5~-----8~-----3-2-----4-5---2~----3~----5~-------------------|
C#|-0~--0-5~---0-8~---0-----0-0-2-3-0-0~--0-----0------0---0---0-----0-|
        .      .      .     . .     .     .     .      .   .   .     .

C#|------------------------------------------------------------------------|
G#|------------------------------------------------------------------------|
E#|------------------------------------------------------------------------|
B#|-9-----------10-----------13---------------------------------7~-----10~-|
F#|-7-----------8------------11---------------------------2~----5~-----8~--|
C#|---0-0-0-0-0----0-0-0-0-0----0-0-0-0-0-0-5-3-2-0-2-3-2-0~--0-5~---0-8~--|
      . . . . .    . . . . .    . . . . . . . . . . . . .     .      .


Breakdown:

C#|-------------------------------------------------------|
G#|-------------------------------------------------------|
E#|-------------------------------------------------------|
B#|-^---------^---------^-----^---------^---------^-------|
F#|-7---------7---------7-----7---------7---------10------|
C#|---000-000---000-000---000---000-000---000-000----000--|
      ... ...   ... ...   ...   ... ...   ... ...    ...

C#|---------------------------------|---------------------------|
G#|---------------------------------|---------------------------|
E#|---------------------------------|---------------------------|
B#|-^---------^------------7--------|-^---------^---------------|
F#|-7---------7-----7-9-10---10-9---|-7---------7---------5-4~--|
C#|---000-000---000-----------------|---000-000---000-000-3-2~--|
      ... ...   ...                     ... ...   ... ...

Outro:

C#|-------------------------------------------------------------|
G#|-------------------------------------------------------------|
E#|-------------------------------------------------------------|
B#|-9---------9-----------------10---------10-------------------|
F#|-7---------7-----------------8----------8--------------------|
C#|---000-000---000-0-0-0-0-0-0----000-000----000-0-0-0-0-0-0---|
      ... ...   ... . . . . . .    ... ...    ... . . . . . .


C#|-------------------------------------------------------------|
G#|-------------------------------------------------------------|
E#|-------------------------------------------------------------|
B#|-13---------13-----------------9---------9-------------------|
F#|-11---------11-----------------7---------7---------5-4~------|
C#|----000-000----000-0-0-0-0-0-0---000-000---000-000-3-2~------|
       ... ...    ... . . . . . .   ... ...   ... ...

Born From Pain rulez!!!

www.myspace.com/bornfrompain

www.bornfrompain.com
Добавлено: 01.08.2013
Другие материалы по этой песне:
  • Аккорды и текст

Страница создана 01.08.2013
http://primanota.ru/born-from-pain/kill-it-tonight-chords.htm
Привет, Гость.
Предлагаем пройти революционный курс по гитаре.
Подарок от PrimaNota.Ru, забирай!