PrimaNota.ru - самый крупный в мире бесплатный архив песенных текстов, аккордов, табулатур и нот


Born From Pain - Judgement - текст песни, таба, видео

Регистрация Запомнить меня
Войти через:  Facebook Google Twitter Vk Yandex Mail.ru

Born From Pain - Judgement - текст песни, таба, видео

Печатать
Просмотров: 122
-------------------------------------------------------------------------------
		    Judgement - Born From Pain
-------------------------------------------------------------------------------

ARTIST   : Born From Pain
SONG     : Judgement
ALBUM    : In Love With The End
TABBED BY: h8urlife
C-TUNING : C-F-Bb-Eb-G-C




Intro and Verse:

C#|-------------------------------------------------------------|
G#|-------------------------------------------------------------|
E#|-------------------------------------------------------------|
B#|---------------------------2/3-------------------------------| 
F#|-3-2-------------------3-3-2/3-------------------------------|
C#|-1-0-0-0-0-0-0-0-0-0-0-3-3-----0-0-0-0-0-0-0-4-4-4-3-3-3-1-1-|
        . . . . . . . . .         . . . . . . . . . . . . . . .  





Chorus:

C#|-------------------------------------|
G#|-------------------------------------|
E#|-------------------------------------|
B#|------------------------2---------1--| 
F#|-2--2--2--2--5--2--2--2-2-3-2-1-2-1--|
C#|-0--0--0--0--3--0--0--0---3-2-1-2----|
                   .  .  .   . . . .                      
                




Bridge:

C#|------------------------------|
G#|------------------------------|
E#|------------------------------|
B#|--------8~------------5~------| 
F#|-2~-----6~-----6~-----3~--8---|
C#|-0~---0-6~---0-4~---0-3~--6---|
         .      .      .                     





Verse:

C#|-------------------------------------------------------------|
G#|-------------------------------------------------------------|
E#|-------------------------------------------------------------|
B#|---------------------------2/3-------------------------------| 
F#|-3-2-------------------3-3-2/3-------------------------------|
C#|-1-0-0-0-0-0-0-0-0-0-0-3-3-----0-0-0-0-0-0-0-4-4-4-3-3-3-1-1-|
        . . . . . . . . .         . . . . . . . . . . . . . . . 




Chorus:

C#|-------------------------------------|
G#|-------------------------------------|
E#|-------------------------------------|
B#|------------------------2---------1--| 
F#|-2--2--2--2--5----------2-3-2-1-2-1--|
C#|-0--0--0--0--3--0--0--0---3-2-1-2----|
                   .  .  .   . . . .




Bridge:

C#|------------------------------|
G#|------------------------------|
E#|------------------------------|
B#|--------8~------------5~------| 
F#|-2~-----6~-----6~-----3~--8---|
C#|-0~---0-6~---0-4~---0-3~--6---|
         .      .      .    





Breakdown:

C#|-----------------------|----------------------|
G#|-----------------------|----------------------|
E#|-----------------------|----------------------|
B#|-------------1-----1---|----------8--7--------|
F#|-2--3--2-----1-----1---|-2--3--2--6--5--3-5-3-|
C#|-0--1--0-0-0----0------|-0--1--0--6--5--1-3-1-|
            . .    .    





Born From Pain rulez!!!

www.myspace.com/bornfrompain

www.bornfrompain.com
Добавлено: 19.08.2013
Другие материалы по этой песне:
  • Аккорды и текст

Страница создана 19.08.2013
http://primanota.ru/born-from-pain/judgement-chords.htm
Привет, Гость.
Предлагаем пройти революционный курс по гитаре.
Подарок от PrimaNota.Ru, забирай!