PrimaNota.ru - самый крупный в мире бесплатный архив песенных текстов, аккордов, табулатур и нот


Born From Pain - Hour Of The Wolf - текст песни, таба, видео

Регистрация Запомнить меня
Войти через:  Facebook Google Twitter Vk Yandex Mail.ru

Born From Pain - Hour Of The Wolf - текст песни, таба, видео

Печатать
Просмотров: 108
-------------------------------------------------------------------------------
		    Hour Of The Wolf - Born From Pain
-------------------------------------------------------------------------------

ARTIST   : Born From Pain
SONG     : Hour Of The Wolf
ALBUM    : In Love With The End
TABBED BY: h8urlife
C-TUNING : C-F-Bb-Eb-G-C





Intro:
             (3x)                    (1x) 
C#|-------------------------|-----------------------|
G#|-------------------------|-----------------------|
E#|-------------------------|-----------------------|
B#|-------7-9-9-------------|-----------------------|
F#|-2~----5-7-7----^--^--^--|-7--7-----5--5--4-5-4--|
C#|-0~--0--------0-6--4--3--|-5--5-5-5-3--3--2-3-2--|
        .        .                 . .    



             (3x)                    (1x) 
C#|---------------------------|-----------------------|
G#|---------------------------|-----------------------|
E#|---------------------------|-----------------------|
B#|---------7-9-9-------------|-----------------------|
F#|-2-------5-7-7----^--^--^--|-7--7-----5--5--4-5-4--|
C#|-0-0-0-0--------0-6--4--3--|-5--5-5-5-3--3--2-3-2--|
      . . .        .                 . .  




Verse:                       

C#|--------------------------------------|
G#|--------------------------------------|
E#|--------------------------------------|
B#|-9---------------9--------------------| 
F#|-7-------2-------7---------2---10-9---|
C#|---0-0-0-0-0-0-0---0-0-0-0-0-0--8-7---|
      . . .   . . .   . . . .   .     


C#|-------------------------------|
G#|-------------------------------|
E#|-------------------------------|
B#|-9-----------------------------| 
F#|-7-------2----------------5----|
C#|---0-0-0-0-0-0-0-3--5--6----6--|
      . . .   . . .   




C#|--------------------------------------|
G#|--------------------------------------|
E#|--------------------------------------|
B#|-9---------------9--------------------| 
F#|-7-------2-------7---------2---10-9---|
C#|---0-0-0-0-0-0-0---0-0-0-0-0-0--8-7---|
      . . .   . . .   . . . .   .     


C#|-------------------------------|
G#|-------------------------------|
E#|-------------------------------|
B#|-9-----------------------------| 
F#|-7-------2----------------5----|
C#|---0-0-0-0-0-0-0-3--5--6----6--|
      . . .   . . .   





Chorus:

C#|------------------------------------------------------------------|
G#|------------------------------------------------------------------|
E#|------------------------------------------------------------------|
B#|-9-9-9-7-9-10-9---9-9-----9--14-14-14-12-12-12-11--11-11-11-12-11-| 
F#|-7-7-7-5-7-8--7---7-7-----7--12-12-12-10-10-10-9---9--9--9--10-9--|
C#|----------------------0-0-----------------------------------------|
                         . .  


C#|------------------------------------------------------------------|
G#|------------------------------------------------------------------|
E#|------------------------------------------------------------------|
B#|-9-9-9-7-9-10-9---9-9-----9--14-14-14-12-12-12-11--11-11-11-12-11-| 
F#|-7-7-7-5-7-8--7---7-7-----7--12-12-12-10-10-10-9---9--9--9--10-9--|
C#|----------------------0-0-----------------------------------------|
                         . .  




Verse:                       

C#|--------------------------------------|
G#|--------------------------------------|
E#|--------------------------------------|
B#|-9---------------9--------------------| 
F#|-7-------2-------7---------2---10-9---|
C#|---0-0-0-0-0-0-0---0-0-0-0-0-0--8-7---|
      . . .   . . .   . . . .   .     


C#|-------------------------------|
G#|-------------------------------|
E#|-------------------------------|
B#|-9-----------------------------| 
F#|-7-------2----------------5----|
C#|---0-0-0-0-0-0-0-3--5--6----6--|
      . . .   . . .   




Chorus:

C#|------------------------------------------------------------------|
G#|------------------------------------------------------------------|
E#|------------------------------------------------------------------|
B#|-9-9-9-7-9-10-9---9-9-----9--14-14-14-12-12-12-11--11-11-11-12-11-| 
F#|-7-7-7-5-7-8--7---7-7-----7--12-12-12-10-10-10-9---9--9--9--10-9--|
C#|----------------------0-0-----------------------------------------|
                         . .  


C#|------------------------------------------------------------------|
G#|------------------------------------------------------------------|
E#|------------------------------------------------------------------|
B#|-9-9-9-7-9-10-9---9-9-----9--14-14-14-12-12-12-11--11-11-11-12-11-| 
F#|-7-7-7-5-7-8--7---7-7-----7--12-12-12-10-10-10-9---9--9--9--10-9--|
C#|----------------------0-0-----------------------------------------|
                         . .  

C#|------------------------------------------------------------------|
G#|------------------------------------------------------------------|
E#|------------------------------------------------------------------|
B#|-9-9-9-7-9-10-9---9-9-----9--14-14-14-12-12-12-11--11-11-11-12-11-| 
F#|-7-7-7-5-7-8--7---7-7-----7--12-12-12-10-10-10-9---9--9--9--10-9--|
C#|----------------------0-0-----------------------------------------|
                         . .  


C#|------------------------------------------------------------------|
G#|------------------------------------------------------------------|
E#|------------------------------------------------------------------|
B#|-9-9-9-7-9-10-9---9-9-----9--14-14-14-12-12-12-11--11-11-11-12-11-| 
F#|-7-7-7-5-7-8--7---7-7-----7--12-12-12-10-10-10-9---9--9--9--10-9--|
C#|----------------------0-0-----------------------------------------|
                         . .  




Bridge:

C#|------------------|
G#|------------------|
E#|------------------|
B#|-9/---7--10--9/---| 
F#|-7/---5--8---7/---|
C#|------------------|





Breakdown:

C#|----------------------------------------------------------------------|
G#|----------------------------------------------------------------------|
E#|----------------------------------------------------------------------|
B#|----------------------------------------------------------------------| 
F#|-----------^---^--------6555555------------^---^--------5-5-5-3-3-5-5-|
C#|--00000000-6-0-3-000000--------65-00000000-6-0-3-000000-3-3-3-1-1-3-3-|
     ........   .   ......  ......   ........   .   ......                        





Chorus:

C#|------------------------------------------------------------------|
G#|------------------------------------------------------------------|
E#|------------------------------------------------------------------|
B#|-9-9-9-7-9-10-9---9-9-----9--14-14-14-12-12-12-11--11-11-11-12-11-| 
F#|-7-7-7-5-7-8--7---7-7-----7--12-12-12-10-10-10-9---9--9--9--10-9--|
C#|----------------------0-0-----------------------------------------|
                         . .  


C#|------------------------------------------------------------------|
G#|------------------------------------------------------------------|
E#|------------------------------------------------------------------|
B#|-9-9-9-7-9-10-9---9-9-----9--14-14-14-12-12-12-11--11-11-11-12-11-| 
F#|-7-7-7-5-7-8--7---7-7-----7--12-12-12-10-10-10-9---9--9--9--10-9--|
C#|----------------------0-0-----------------------------------------|
                         . .  

                        


BFP rulez!!!
www.bornfrompain.com
www.myspace.com/bornfrompain 
Добавлено: 16.09.2013
Другие материалы по этой песне:
  • Аккорды и текст

Страница создана 16.09.2013
http://primanota.ru/born-from-pain/hour-of-the-wolf-chords.htm
Привет, Гость.
Предлагаем пройти революционный курс по гитаре.
Подарок от PrimaNota.Ru, забирай!