PrimaNota.ru - самый крупный в мире бесплатный архив песенных текстов, аккордов, табулатур и нот


Born From Pain - Death And The City - текст песни, таба, видео

Регистрация Запомнить меня
Войти через:  Facebook Google Twitter Vk Yandex Mail.ru

Born From Pain - Death And The City - текст песни, таба, видео

Печатать
Просмотров: 146
Уроки эстрадного вокала в Санкт-Петербурге
-------------------------------------------------------------------------------
			  Death and the city - Born From Pain
-------------------------------------------------------------------------------

ARTIST: Born From Pain
SONG: Death and the city
ALBUM: Sands of time
TABBED BY: h8urlife
TUNING: Standard  C# G# C# F# A# D# (no drop) 
       

INtro:

D#|-----------------------------|
A#|-----------------------------|
F#|-----------------------------|(2x)
C#|-----------------------------| 
G#|-2~--3-5-6-5-3-5~--3-5-6-5-3-|
C#|-0~--1-3-4-3-1-3~--1-3-4-3-1-|


Verse:

D#|-------------------------------------------------|
A#|-------------------------------------------------|
F#|-------------------------------------------------|(2x)
C#|-------------------------------------------------| 
G#|-2-2-2-------3-3-3-------2-2-2-------6-6-6-5-5-5-|
C#|-0-0-0-0-000-1-1-1-1-111-0-0-0-0-000-4-4-4-3-3-3-|
          . ...       . ...       . ... 


D#|-------------------------------------------------|
A#|-------------------------------------------------|
F#|-------------------------------------------------|(2x)
C#|-------------------------------------------------| 
G#|-2-2-2-------3-3-3-------2-2-2-------5-5-5-6-6-6-|
C#|-0-0-0-0-000-1-1-1-1-111-0-0-0-0-000-3-3-3-4-4-4-|
          . ...       . ...       . ... 

Chorus:

D#|--------------------------|
A#|--------------------------|
F#|--------------------------|
C#|--------------------------| 
G#|-2-------------6-5--3-5-6-|
C#|-0-0-0-0-0-0-0-4-3--1-3-4-|
      . . . . . .

D#|-----------------------|
A#|-----------------------|
F#|-----------------------|
C#|-----------------------| 
G#|-2----------6-5--3-5-6-|
C#|-0-00-00-00-4-3--1-3-4-|
      .. .. .. 

-> Verse


At: 1:36


D#|------------------------------------|
A#|------------------------------------|
F#|------------------------------------|
C#|------------------------------------| 
G#|-2~-2~-2~-2~-------------3--5--6--5-|
C#|-0~-0~-0~-0~-0-0-0-0-0-0-1--3--4--3-|
                . . . . . . 


D#|------------------------------------------------------------|
A#|------------------------------------------------------------|
F#|------------------------------------------------------------|
C#|------------------------------------------------------------| 
G#|-----------------------------2----------------------------3-|
C#|-0-0-0-0-000-0-0-0-0-0-00000-0--0-0-0-0-000-0-1-3-4-3-1-3-1-|
    . . . . ... . . . . . .....    . . . . ... . . . . . . .


BFP rulez!!!

www.bornfrompain.com
Добавлено: 29.06.2013
Другие материалы по этой песне:
  • Аккорды и текст

Страница создана 07.05.2012
http://primanota.ru/born-from-pain/death-and-the-city-chords.htm
Привет, Гость.
Предлагаем пройти революционный курс по гитаре.
Подарок от PrimaNota.Ru, забирай!