PrimaNota.ru - самый крупный в мире бесплатный архив песенных текстов, аккордов, табулатур и нот


Born From Pain - Dead Code - текст песни, таба, видео

Регистрация Запомнить меня
Войти через:  Facebook Google Twitter Vk Yandex Mail.ru

Born From Pain - Dead Code - текст песни, таба, видео

Печатать
Просмотров: 120
Уроки эстрадного вокала в Санкт-Петербурге
-------------------------------------------------------------------------------
		    Dead Code - Born From Pain
-------------------------------------------------------------------------------

ARTIST   : Born From Pain
SONG     : Dead Code
ALBUM    : In Love With The End
TABBED BY: h8urlife
C-TUNING : C-F-Bb-Eb-G-C



Intro:

C#|----------------------------------------|
G#|----------------------------------------|
E#|----------------------------------------|
B#|-6~---7~---5~---6~---6~---7~---5~---6~--| 
F#|-4~---5~---3~---4~---4~---5~---3~---4~--|
C#|-4~---5~---3~---4~---4~---5~---3~---4~--|
                         

C#|----------------------------------------|
G#|----------------------------------------|
E#|----------------------------------------|
B#|----------------------------------------| 
F#|-4~---3~---4~---3~---4~---3~---4~---3~--|
C#|-2~---1~---2~---1~---2~---1~---2~---1~--|




C#|----------------------------------------|
G#|----------------------------------------|
E#|----------------------------------------|
B#|-6~---7~---5~---6~---6~---7~---5~---6~--| 
F#|-4~---5~---3~---4~---4~---5~---3~---4~--|
C#|-4~---5~---3~---4~---4~---5~---3~---4~--|
                         

C#|----------------------------------------------|
G#|----------------------------------------------|
E#|----------------------------------------------|
B#|----------------------------------------------| 
F#|-4~---3~---4~---3~---4~---3~---4~---3~---2~---|
C#|-2~---1~---2~---1~---2~---1~---2~---1~---0~---|






Verse:

C#|---------------------------------------------------------------|
G#|---------------------------------------------------------------|
E#|---------------------------------------------------------------|
B#|---------------------------------------------------------------|---| 
F#|-5/6-----------------------------------------------------------|   |
C#|-3/4-0-0-0-0-0-0-0-0-0-1-1-1-1-0-0-0-0-1-1-1-1-0-0-0-0-8-8-7-7-|   |
        . . . . . . . . . . . . . . . . . . . . . . . . . . . . .     |
                                                                      |(4x)
                                                                      |
C#|---------------------------------------------------------------|   |
G#|---------------------------------------------------------------|   |
E#|---------------------------------------------------------------|---|
B#|---------------------------------------------------------------| 
F#|---------------------------------------------------------------|
C#|-0-0-0-0-1-4-3-0-0-0-0-4-4-4-4-0-0-0-0-1-1-1-1-1-1-1-1-1-1-1-1-|
    . . . . . . . . . . . . . . . . . . . . . . . . . . . . . . .  





Chorus:

C#|----------------------------------------|
G#|----------------------------------------|
E#|-------------------------0-0------------|
B#|----------------------------------------| 
F#|-2~-------2~-----------4------------3---|
C#|-0~--0-0--0~---0--0-0--------^3---0-1---|
        . .       .  . .             .  





Verse:

C#|---------------------------------------------------------------|
G#|---------------------------------------------------------------|
E#|---------------------------------------------------------------|
B#|---------------------------------------------------------------|---| 
F#|-5/6-----------------------------------------------------------|   |
C#|-3/4-0-0-0-0-0-0-0-0-0-1-1-1-1-0-0-0-0-1-1-1-1-0-0-0-0-8-8-7-7-|   |
        . . . . . . . . . . . . . . . . . . . . . . . . . . . . .     |
                                                                      |(4x)
                                                                      |
C#|---------------------------------------------------------------|   |
G#|---------------------------------------------------------------|   |
E#|---------------------------------------------------------------|---|
B#|---------------------------------------------------------------| 
F#|---------------------------------------------------------------|
C#|-0-0-0-0-1-4-3-0-0-0-0-4-4-4-4-0-0-0-0-1-1-1-1-1-1-1-1-1-1-1-1-|
    . . . . . . . . . . . . . . . . . . . . . . . . . . . . . . .  





Chorus:

C#|----------------------------------------|
G#|----------------------------------------|
E#|-------------------------0-0------------|
B#|----------------------------------------| 
F#|-2~-------2~-----------4------------3---|
C#|-0~--0-0--0~---0--0-0--------^3---0-1---|
        . .       .  . .             .  





Bridge:

C#|----------------------------------------------------------------|
G#|----------------------------------------------------------------|
E#|----------------------------------------------------------------|
B#|-----9---10----12---10----9---8------9---10----12---10----------| 
F#|-----7---8-----10---8-----7---6------7---8-----10---8-----7-5-5-|
C#|-0-0---0---0-0----0---0-0---0----0-0---0---0-0----0---0-0-5-3-3-|
    . .   .   . .    .   . .   .    . .   .   . .    .   . .       


C#|----------------------------------------------------|
G#|----------------------------------------------------|
E#|----------------------------------------------------|
B#|-----9---10----12---10----9---8---------------------| 
F#|-----7---8-----10---8-----7---6------5-5--3-3--6-6--|
C#|-0-0---0---0-0----0---0-0---0----0-0-3-3--1-1--4-4--|
    . .   .   . .    .   . .   .    . .    




Breakdown:

C#|--------------------------------------------------|
G#|--------------------------------------------------|
E#|--------------------------------------------------|
B#|--------------------------------------------------| 
F#|--------------------------------------------------|
C#|-00000-00000-00000-00000-11111-11111-44444-44444--|
    ..... ..... ..... ..... ..... ..... ..... ..... 




Bridge:

C#|----------------------------------------------------------------|
G#|----------------------------------------------------------------|
E#|----------------------------------------------------------------|
B#|-----9---10----12---10----9---8------9---10----12---10----------| 
F#|-----7---8-----10---8-----7---6------7---8-----10---8-----7-5-5-|
C#|-0-0---0---0-0----0---0-0---0----0-0---0---0-0----0---0-0-5-3-3-|
    . .   .   . .    .   . .   .    . .   .   . .    .   . .       


C#|----------------------------------------------------|
G#|----------------------------------------------------|
E#|----------------------------------------------------|
B#|-----9---10----12---10----9---8---------------------| 
F#|-----7---8-----10---8-----7---6------5-5--3-3--6-6--|
C#|-0-0---0---0-0----0---0-0---0----0-0-3-3--1-1--4-4--|
    . .   .   . .    .   . .   .    . .  





Breakdown:

C#|--------------------------------------------------|
G#|--------------------------------------------------|
E#|--------------------------------------------------|
B#|--------------------------------------------------| 
F#|--------------------------------------------------|
C#|-00000-00000-00000-00000-11111-11111-44444-44444--|
    ..... ..... ..... ..... ..... ..... ..... ..... 




Verse:

C#|---------------------------------------------------------------|
G#|---------------------------------------------------------------|
E#|---------------------------------------------------------------|
B#|---------------------------------------------------------------|---| 
F#|-5/6-----------------------------------------------------------|   |
C#|-3/4-0-0-0-0-0-0-0-0-0-1-1-1-1-0-0-0-0-1-1-1-1-0-0-0-0-8-8-7-7-|   |
        . . . . . . . . . . . . . . . . . . . . . . . . . . . . .     |
                                                                      |(4x)
                                                                      |
C#|---------------------------------------------------------------|   |
G#|---------------------------------------------------------------|   |
E#|---------------------------------------------------------------|---|
B#|---------------------------------------------------------------| 
F#|---------------------------------------------------------------|
C#|-0-0-0-0-1-4-3-0-0-0-0-4-4-4-4-0-0-0-0-1-1-1-1-1-1-1-1-1-1-1-1-|
    . . . . . . . . . . . . . . . . . . . . . . . . . . . . . . . 






BFP rulez!!!
www.bornfrompain.com
www.myspace.com/bornfrompain 
Добавлено: 22.09.2013
Другие материалы по этой песне:
  • Аккорды и текст

Страница создана 22.09.2013
http://primanota.ru/born-from-pain/dead-code-chords.htm
Привет, Гость.
Предлагаем пройти революционный курс по гитаре.
Подарок от PrimaNota.Ru, забирай!