PrimaNota.ru - самый крупный в мире бесплатный архив песенных текстов, аккордов, табулатур и нот


Born From Pain - Bury Me Fighting - текст песни, таба, видео

Регистрация Запомнить меня
Войти через:  Facebook Google Twitter Vk Yandex Mail.ru

Born From Pain - Bury Me Fighting - текст песни, таба, видео

Печатать
Просмотров: 109
-------------------------------------------------------------------------------
			Bury Me Fighting - Born From Pain
-------------------------------------------------------------------------------

ARTIST   : Born From Pain
SONG     : Bury Me Fighting
ALBUM    : War
TABBED BY: h8urlife
TUNING   : Standard  C# G# C# F# A# D# 






Intro:

D#|--------------------------------------------------------------------|
A#|--------------------------------------------------------------------|
F#|--------------------------------------------------------------------|
C#|-3------------------------------3-----------------------------------| 
G#|-1-----2---------------5--3--6--1-----2-----------------------------|
C#|---0-0-0-0-0-3h4p3-0-0-3--1--4----0-0-0-0-0-3h4p3-0-0-444-333-111---|
      . .   . .       . .            . .   . .       . . ... ... ... 
D#|--------------------------------------------------------------------|
A#|--------------------------------------------------------------------|
F#|--------------------------------------------------------------------|
C#|-3------------------------------3-----------------------------------| 
G#|-1-----2---------------5--3--6--1-----2-----------------------------|
C#|---0-0-0-0-0-3h4p3-0-0-3--1--4----0-0-0-0-0-3h4p3-0-0--4--3--1------|
      . .   . .       . .            . .   . .       . .        

Then:

D#|-------------------------------------------------------------|
A#|-------------------------------------------------------------|
F#|-------------------------------------------------------------|
C#|-3----------------------------3------------------------------| 
G#|-1-----2------2------2--------1-----2------2-----------------|
C#|---0-0-0--0-0-0--0-0-0--0-0-0---0-0-0--0-0-0--0-444-333-111--|
      . .    . .    . .    . . .   . .    . .    . ... ... ...  

D#|-------------------------------------------------------------|
A#|-------------------------------------------------------------|
F#|-------------------------------------------------------------|
C#|-3----------------------------3------------------------------| 
G#|-1-----2------2------2--------1-----2------2-----------------|
C#|---0-0-0--0-0-0--0-0-0--0-0-0---0-0-0--0-0-0-0--4--3--1------|
      . .    . .    . .    . . .   . .    . .   .   




Verse:

D#|------------------------------------------------------------------------------------|
A#|------------------------------------------------------------------------------------|
F#|------------------------------------------------------------------------------------|
C#|-----------8-5-7----------------8-5-7----------------8-5-7----------------8-5-7-----| 
G#|-----------6-3-5-5-7------------6-3-5-5-7------------6-3-5-5-7------------6-3-5-5-7-|
C#|-000000000-------3-5--000000000-------3-5--000000000-------3-5--444444444-------3-5-|
    .........            .........            .........            .........    




Chorus:

D#|----------------------------------------------------------------|
A#|----------------------------------------------------------------|
F#|----------------------------------------------------------------|
C#|---------8/7---------8/7-----------------8-7--------------------| 
G#|---------6/5---------6/5-----5-3---------6/5-----5----3-----6-5-|
C#|-0-0-0-0-----0-0-0-0-----0-0-3-1-0-0-0-0-----00003000010000-4-3-|
    . . . .     . . . .     . .     . . . .     .... .... .... 




Verse:

D#|------------------------------------------------------------------------------------|
A#|------------------------------------------------------------------------------------|
F#|------------------------------------------------------------------------------------|
C#|-----------8-5-7----------------8-5-7----------------8-5-7----------------8-5-7-----| 
G#|-----------6-3-5-5-7------------6-3-5-5-7------------6-3-5-5-7------------6-3-5-5-7-|
C#|-000000000-------3-5--000000000-------3-5--000000000-------3-5--444444444-------3-5-|
    .........            .........            .........            .........    
             



Chorus:

D#|----------------------------------------------------------------|
A#|----------------------------------------------------------------|
F#|----------------------------------------------------------------|
C#|---------8/7---------8/7-----------------8-7--------------------| 
G#|---------6/5---------6/5-----5-3---------6/5-----5----3-----6-5-|
C#|-0-0-0-0-----0-0-0-0-----0-0-3-1-0-0-0-0-----00003000010000-4-3-|
    . . . .     . . . .     . .     . . . .     .... .... .... 



Breakdown:

D#|-------------------------------------------------------------|
A#|-------------------------------------------------------------|
F#|-------------------------------------------------------------|
C#|-------------------------------------------------------------| 
G#|-2-------5h7p5------5---5-4-4--2-------5h7p5----------5------|
C#|-0-0-0-0-------6--0-3-0-3-2-2--0-0-0-0-------6--3-4-6---4-3--|
      . . .          .   .          . . .          . . . 
  
D#|-------------------------------------------------------------|
A#|-------------------------------------------------------------|
F#|-------------------------------------------------------------|
C#|-------------------------------------------------------------| 
G#|-2-------5h7p5------5---5-4-4--2-------5h7p5-----------------|
C#|-0-0-0-0-------6--0-3-0-3-2-2--0-0-0-0-------6--6-6-4-4-3----|
      . . .          .   .          . . .         

D#|---------------------------------------------|
A#|---------------------------------------------|
F#|----9~---12~---9--12--14--15--14-12-14-12~---|
C#|---------------------------------------------| 
G#|---------------------------------------------|
C#|---------------------------------------------|
      


Then:


D#|-----------------------------------------------------------------|
A#|-----------------------------------------------------------------|
F#|-----------------------------------------------------------------|
C#|-3-------------------------------3-------------------------------| 
G#|-1-----2-------------------------1-----2-------------------------|
C#|---0-0-0-0-0-0-0-0-0-0-0-0-0-0-0---0-0-0-0-0-0-0-0-0-444-333-111-|
      . .   . . . . . . . . . . . .   . .   . . . . . . ... ... ...     

D#|-----------------------------------------------------------------|
A#|-----------------------------------------------------------------|
F#|-----------------------------------------------------------------|
C#|-3-------------------------------3-------------------------------| 
G#|-1-----2-------------------------1-----2-------------------------|
C#|---0-0-0-0-0-0-0-0-0-0-0-0-0-0-0---0-0-0-0-0-0-0-0-0--4--3--1----|
      . .   . . . . . . . . . . . .   . .   . . . . . . 




Verse:

D#|------------------------------------------------------------------------------------|
A#|------------------------------------------------------------------------------------|
F#|------------------------------------------------------------------------------------|
C#|-----------8-5-7----------------8-5-7----------------8-5-7----------------8-5-7-----| 
G#|-----------6-3-5-5-7------------6-3-5-5-7------------6-3-5-5-7------------6-3-5-5-7-|
C#|-000000000-------3-5--000000000-------3-5--000000000-------3-5--444444444-------3-5-|
    .........            .........            .........            ......... 




Outro:

D#|--------------------------------------------------------------------|
A#|--------------------------------------------------------------------|
F#|--------------------------------------------------------------------|
C#|-3------------------------------3-----------------------------------| 
G#|-1-----2---------------5--3--6--1-----2-----------------------------|
C#|---0-0-0-0-0-3h4p3-0-0-3--1--4----0-0-0-0-0-3h4p3-0-0-444-333-111---|
      . .   . .       . .            . .   . .       . . ... ... ... 
D#|--------------------------------------------------------------------|
A#|--------------------------------------------------------------------|
F#|--------------------------------------------------------------------|
C#|-3------------------------------3-----------------------------------| 
G#|-1-----2---------------5--3--6--1-----2-----------------------------|
C#|---0-0-0-0-0-3h4p3-0-0-3--1--4----0-0-0-0-0-3h4p3-0-0--4--3--1------|
      . .   . .       . .            . .   . .       . .        

Then:

D#|-------------------------------------------------------------|
A#|-------------------------------------------------------------|
F#|-------------------------------------------------------------|
C#|-3----------------------------3------------------------------| 
G#|-1-----2------2------2--------1-----2------2-----------------|
C#|---0-0-0--0-0-0--0-0-0--0-0-0---0-0-0--0-0-0--0-444-333-111--|
      . .    . .    . .    . . .   . .    . .    . ... ... ...  

D#|-------------------------------------------------------------|
A#|-------------------------------------------------------------|
F#|-------------------------------------------------------------|
C#|-3----------------------------3------------------------------| 
G#|-1-----2------2------2--------1-----2------2-----------------|
C#|---0-0-0--0-0-0--0-0-0--0-0-0---0-0-0--0-0-0-0--4--3--1------|
      . .    . .    . .    . . .   . .    . .   . 
Добавлено: 06.08.2013
Другие материалы по этой песне:
  • Аккорды и текст

Страница создана 06.08.2013
http://primanota.ru/born-from-pain/bury-me-fighting-chords.htm
Привет, Гость.
Предлагаем пройти революционный курс по гитаре.
Подарок от PrimaNota.Ru, забирай!