PrimaNota.ru - самый крупный в мире бесплатный архив песенных текстов, аккордов, табулатур и нот


Born From Pain - Behind Enemy Lines - текст песни, таба, видео

Регистрация Запомнить меня
Войти через:  Facebook Google Twitter Vk Yandex Mail.ru

Born From Pain - Behind Enemy Lines - текст песни, таба, видео

Печатать
Просмотров: 105
-------------------------------------------------------------------------------
                          Behind Enemy Lines - Born From Pain
-------------------------------------------------------------------------------

ARTIST   : Born From Pain
SONG     : Behind Enemy Lines
ALBUM    : War
TABBED BY: h8urlife
TUNING   : Standard  C# G# C# F# A# D# 





                               (4x)
D#|-----------------------------------------------------------------|
A#|-----------------------------------------------------------------|
F#|-----------------------------------------------------------------|
C#|-----------------------------------------------------------------| 
G#|-----------------8-5-------------6-3-----------------5-3-----6-3-|
C#|-000-000-0-0-000-6/3-000-0-0-000-4/1-000-0-0-000-0-0-3/1-0-0-4/1-|
    ... ... . . ...     ... . . ...     ... . . ... . .     . .


 
                            (1x)
D#|------------------------------------------------------------|
A#|------------------------------------------------------------|
F#|------------------------------------------------------------|
C#|------------------------------------------------------------| 
G#|-5-3-3-5-6-5-1--5-3-3-5-6-5-3--5-3-3-5-6-5-1--5-3-3-5-6-5-3-|
C#|-3-1-1-3-4-3-1--3-1-1-3-4-3-1--3-1-1-3-4-3-1--3-1-1-3-4-3-1-|
                       



                              (4x)
D#|-----------------------------------------------------------------|
A#|-----------------------------------------------------------------|
F#|-----------------------------------------------------------------|
C#|-----------------------------------------------------------------| 
G#|-----------------8-5-------------6-3-----------------5-3-----6-3-|
C#|-000-000-0-0-000-6/3-000-0-0-000-4/1-000-0-0-000-0-0-3/1-0-0-4/1-|
    ... ... . . ...     ... . . ...     ... . . ... . .     . .



                            (2x)
D#|------------------------------------------------------------|
A#|------------------------------------------------------------|
F#|------------------------------------------------------------|
C#|------------------------------------------------------------| 
G#|-5-3-3-5-6-5-1--5-3-3-5-6-5-3--5-3-3-5-6-5-1--5-3-3-5-6-5-3-|
C#|-3-1-1-3-4-3-1--3-1-1-3-4-3-1--3-1-1-3-4-3-1--3-1-1-3-4-3-1-|



At: 0:56


D#|------------------------------------------------|
A#|------------------------------------------------|
F#|------------------------------------------------|
C#|------------------------------------------------| 
G#|-5--3--6--3--5--3--6--3--5--3--6--3--5--3--6--3-|
C#|-3--1--4--1--3--1--4--1--3--1--4--1--3--1--4--1-|


D#|---------------------------------|
A#|---------------------------------|
F#|---------------------------------|
C#|---------------------------------| 
G#|-5-5-5-5-3-3-3-3-6-6-6-6-3-3-3-3-|
C#|-3-3-3-3-1-1-1-1-4-4-4-4-1-1-1-1-|
    . . . . . . . . . . . . . . . . 




                       (2x)
D#|------------------------------------------------|
A#|------------------------------------------------|
F#|------------------------------------------------|
C#|------------------------------------------------| 
G#|-5--3--6--3--5--3--6--3--5--3--6--3--5--3--6--3-|
C#|-3--1--4--1--3--1--4--1--3--1--4--1--3--1--4--1-|





                              (4x)
D#|-----------------------------------------------------------------|
A#|-----------------------------------------------------------------|
F#|-----------------------------------------------------------------|
C#|-----------------------------------------------------------------| 
G#|-----------------8-5-------------6-3-----------------5-3-----6-3-|
C#|-000-000-0-0-000-6/3-000-0-0-000-4/1-000-0-0-000-0-0-3/1-0-0-4/1-|
    ... ... . . ...     ... . . ...     ... . . ... . .     . .


                            (2x)
D#|------------------------------------------------------------|
A#|------------------------------------------------------------|
F#|------------------------------------------------------------|
C#|------------------------------------------------------------| 
G#|-5-3-3-5-6-5-1--5-3-3-5-6-5-3--5-3-3-5-6-5-1--5-3-3-5-6-5-3-|
C#|-3-1-1-3-4-3-1--3-1-1-3-4-3-1--3-1-1-3-4-3-1--3-1-1-3-4-3-1-|







Breakdown:


D#|----------------------------------------------------------------------------|
A#|----------------------------------------------------------------------------|
F#|----------------------------------------------------------------------------|
C#|----------------------------------------------------------------------------| 
G#|--------------------8-5---------------6-3--------------------5-3------6-3---|
C#|-000--000--0-0--000-6/3-000--0-0--000-4/1-000--0-0--000--0-0-3/1--0-0-4/1---|
    ...  ...  . .  ...     ...  . .  ...     ...  . .  ...  . .      . .





BFP rulez!!!

www.bornfrompain.com
Добавлено: 01.01.2014
Другие материалы по этой песне:
  • Аккорды и текст

Страница создана 01.01.2014
http://primanota.ru/born-from-pain/behind-enemy-lines-chords.htm
Привет, Гость.
Предлагаем пройти революционный курс по гитаре.
Подарок от PrimaNota.Ru, забирай!