PrimaNota.ru - самый крупный в мире бесплатный архив песенных текстов, аккордов, табулатур и нот


Borknagar - Universal - текст песни, таба, видео

Регистрация Запомнить меня
Войти через:  Facebook Google Twitter Vk Yandex Mail.ru

Borknagar - Universal - текст песни, таба, видео

Печатать
Просмотров: 96
Artist: Borknagar
Song: Universal
Album: The Archaic Course
Released In 1998

Tabbed By Obscurr (Roscoe Himself)
Contact: egeldur@hotmail.com
Feel free to add to the tab...and let me know if you do!

Rhythm Guitar Only

Standard E Tuning

Riff 1 A

---
---
---
-3-
-3-
-1-


Riff 1b

------0-0-|
--1---3-0-|
--2-0-2-0-|
--2-2-0-0-|
--0-2---2-|
----0---3-|


Riff 2

---------------------|
-5-2-5-----5-2-------|
-6-2-6-9-4-6-2-9-4---|
-6-2-6-9-4-6-2-9-4-5-|
-4-0-4-7-2-4-0-7-2-5-|
-------------------3-|


Riff 3a

-----------|
-6-------6-|
-7-5-3-5-7-|
-7-5-3-5-7-|
-5-3-3-3-5-|
-----------|

Riff 3b(same progression as Riff 3a but 1 whole step up in Emin)
Riff 3c(same progression as Riff 3a but 1 whole step down in Cmin)
Riff 3a

Riff 4

---------------|
---------------|
-----------14--|
-5-7-10-12-14--|
-5-7-10-12-12--|
-3-5-8--10-----|


Riff 5

-----------------|
-----------------|
-14-12-9-10-7----|
-14-12-9-10-7-7--|
-12-10-7-8--5-7--|
--------------5--|


Riff 6

--------------|
--------------|
-14-7-12-10-9-|
-14-7-12-10-9-|
-12-5-10-8--7-|
--------------|

Riff 6 fill

----------|
----------|
-14-12-10-|
-14-12-10-|
-12-10-8--|
----------|


Riff 7a

----------------------------------|
----------------------------------|
-14-14-12-10-14-12-10-10-14-12-10-|
-14-14-12-10-14-12-10-10-14-12-10-|
-12-12-10-8--12-10-8--8--12-10-8--|
----------------------------------|

Riff 7b

--------------------------|
--------------------------|
-14-14-12-1014-12-10-10-9-|
-14-14-12-1014-12-10-10-9-|
-12-12-10-8-12-10-8--8--7-|
--------------------------|


Outro

---
-5-
-5-
-7-
-7-
-5-
Добавлено: 27.09.2014
Другие материалы по этой песне:
  • Аккорды и текст

Страница создана 15.04.2012
http://primanota.ru/borknagar/universal-chords.htm
Привет, Гость.
Предлагаем пройти революционный курс по гитаре.
Подарок от PrimaNota.Ru, забирай!