PrimaNota.ru - самый крупный в мире бесплатный архив песенных текстов, аккордов, табулатур и нот


Borknagar - The View Of Everlast - текст песни, таба, видео

Регистрация Запомнить меня
Войти через:  Facebook Google Twitter Vk Yandex Mail.ru

Borknagar - The View Of Everlast - текст песни, таба, видео

Печатать
Просмотров: 123
As recorded by Borknagar
(From the 2002 Album EMPIRICISM)

Transcribed by asoor
	



G5
3 5 5 x x x
	
A5
5 7 7 x x x
	
Bb5
6 8 8 x x x

Gtr I (E A D G B E) - 'Clean guitar'
Gtr II (E A D G B E) - 'rhythm'
Gtr III (E A D G B E) - 'lead'
Gtr IV (E A D G B E) - 'rhythm'
Gtr V (E A D G B E) - 'clean'

   Intro
    Moderately Q=110
    N.C.
   4/4
    Gtr I
    E E E E E E E E   E E E E E E E  E
||------------------|-------------------|
||o-----------------|-------------------|
||----9---9---9---9-|---9---9---9----9S=|
||--7---7---7---7---|-7---7---7---7-(7)S|
||o-----------------|-------------------|
||------------------|-------------------|


    E   E  E  E  E  E  E  E    E  E  E  E  E  E  E  E
|---------------------------|--------------------------|
|---------------------------|--------------------------|
|-(15)-15----15----15----15-|----14----14----14----14--|
|--12-----12----12----12----|-12----12----12----12-----|
|---------------------------|--------------------------|
|---------------------------|--------------------------|


  E E E E E E E E   E E E E E E E  E
|-----------------|-------------------|
|-----------------|-------------------|
|---9---9---9---9-|---9---9---9----9S=|
|-7---7---7---7---|-7---7---7---7-(7)S|
|-----------------|-------------------|
|-----------------|-------------------|


    E   E  E  E  E  E  E  E    E  E  E  E  E  E  E  E
|---------------------------|--------------------------||
|---------------------------|-------------------------o||
|-(15)-15----15----15----15-|----14----14----14----14--||
|--12-----12----12----12----|-12----12----12----12-----||
|---------------------------|-------------------------o||
|---------------------------|--------------------------||


 Verse
  N.C.
  Gtr I
  E E E E E E E E   E E E E E E E  E
|-----------------|-------------------|
|-----------------|-------------------|
|---9---9---9---9-|---9---9---9----9S=|
|-7---7---7---7---|-7---7---7---7-(7)S|
|-----------------|-------------------|
|-----------------|-------------------|
|
| Gtr II
| PM------|
| E E E E E E Q     W
|-----------------|-------------------|
|-----------------|-------------------|
|-----------------|-------------------|
|-7-7-5-5-7-------|-------------------|
|-----------------|-------------------|
|-----------------|-------------------|
|
| Gtr III
| PM------|
| E E E E E E Q     W
|-----------------|-------------------|
|-----------------|-------------------|
|-----------------|-------------------|
|-7-7-5-5-7-------|-------------------|
|-----------------|-------------------|
|-----------------|-------------------|


    E   E  E  E  E  E  E  E    E  E  E  E  E  E  E  E
|---------------------------|-------------------------||
|---------------------------|-------------------------||
|-(15)-15----15----15----15-|----14----14----14----14-||
|--12-----12----12----12----|-12----12----12----12----||
|---------------------------|-------------------------||
|---------------------------|-------------------------||
|
|   PM-------|                 PM------|
|   E   E  E  E  H             E  E  E  E  H
|---------------------------|-------------------------||
|---------------------------|-------------------------||
|---------------------------|-------------------------||
|---8---8--7--8-------------|--5--5--3--5-------------||
|---------------------------|-------------------------||
|---------------------------|-------------------------||
|
|                PM------|                 PM------|
|   H            E  E  E  E    H           E  E  E  E
|---------------------------|-------------------------||
|---------------------------|-------------------------||
|---------------------------|-------------------------||
|----------------8--8--7--8-|--------------5--5--3--5-||
|---------------------------|-------------------------||
|---------------------------|-------------------------||


    N.C.
    Gtr I
    E E E E E E E E    E  E E E E E E  E
||------------------|---------------------|
||o-----------------|---------------------|
||----9---9---9---9-|-----9---9---9----9S=|
||--7---7---7---7---|--7----7---7---7-(7)S|
||o-----------------|---------------------|
||------------------|---------------------|
|
|   Gtr II
|   W                 +W
||------------------|---------------------|
||o-----------------|---------------------|
||------------------|---------------------|
||--7---------------|-(7)-----------------|
||o-7---------------|-(7)-----------------|
||------------------|---------------------|


    E   E  E  E  E  E  E  E    E  E  E  E  E  E  E  E
|---------------------------|--------------------------|
|---------------------------|--------------------------|
|-(15)-15----15----15----15-|----14----14----14----14--|
|--12-----12----12----12----|-12----12----12----12-----|
|---------------------------|--------------------------|
|---------------------------|--------------------------|
|
|   W                          W
|---------------------------|--------------------------|
|---------------------------|--------------------------|
|---------------------------|--------------------------|
|---8-----------------------|--5-----------------------|
|---8-----------------------|--5-----------------------|
|---------------------------|--------------------------|


  Gtr I
  E E E E E E E E    E  E E E E E E  E
|-----------------|---------------------|
|-----------------|---------------------|
|---9---9---9---9-|-----9---9---9----9S=|
|-7---7---7---7---|--7----7---7---7-(7)S|
|-----------------|---------------------|
|-----------------|---------------------|
|
| Gtr II
| W                 +W
|-----------------|---------------------|
|-----------------|---------------------|
|-----------------|---------------------|
|-7---------------|-(7)-----------------|
|-7---------------|-(7)-----------------|
|-----------------|---------------------|


    E   E  E  E  E  E  E  E    E  E  E  E  E  E  E  E
|---------------------------|--------------------------||
|---------------------------|-------------------------o||
|-(15)-15----15----15----15-|----14----14----14----14--||
|--12-----12----12----12----|-12----12----12----12-----||
|---------------------------|-------------------------o||
|---------------------------|--------------------------||
|
|   W                          W
|---------------------------|--------------------------||
|---------------------------|-------------------------o||
|---------------------------|--------------------------||
|---8-----------------------|--5-----------------------||
|---8-----------------------|--5----------------------o||
|---------------------------|--------------------------||


 Chorus
  A5                Bb5        G5    A5
  Gtr II
  W            +Q   H    +Q    H     H
  |             |   |     |    |     |
  /             /   /     /    /     /

  Gtr III
  ~~
  H.      Q    +Q   H     Q    Q  Q  E E Q
|------------|---------------|--------------|
|------------|---------------|--------------|
|-9-------5--|-(5)--7-----5--|--------------|
|------------|---------------|-8--5---------|
|------------|---------------|-------7S8S7--|
|------------|---------------|--------------|


              Bb5          G5
                  5/4
  +H      +Q  Q    +H      H    +Q
   |       |  |     |      |     |
   /       /  /     /      /     /

   E E H      Q    +H      H    +Q
|----------------|------------------|
|--5h6-----------|------------------|
|-------------7--|-(7)/-------------|
|------7---------|---------5----(5)-|
|----------------|------------------|
|----------------|------------------|


  A5                Bb5        G5    A5
 4/4
  W            +Q   H    +Q    H     H
  |             |   |     |    |     |
  /             /   /     /    /     /

  ~~
  H.      Q    +Q   H     Q    Q  Q  E  E  Q
|------------|---------------|----------------|
|------------|---------------|------------10--|
|-9-------5--|-(5)--7-----5--|----------------|
|------------|---------------|-8--5-----------|
|------------|---------------|-------7S10-----|
|------------|---------------|----------------|


              Bb5          G5
                  5/4
   +H     +Q  Q    +H      H    +Q
    |      |  |     |      |     |
    /      /  /     /      /     /

   +H.        Q    +H      H    +Q
|----------------|--------------------||
|-(10)-----------|--------------------||
|-------------7--|-(7)/---------------||
|----------------|---------5----(5)---||
|----------------|--------------------||
|----------------|--------------------||


   Pre-Verse
    N.C.
   4/4
    Gtr I
    E E E E E E E E    E  E E E E E E  E
||------------------|---------------------|
||o-----------------|---------------------|
||----9---9---9---9-|-----9---9---9----9S=|
||--7---7---7---7---|--7----7---7---7-(7)S|
||o-----------------|---------------------|
||------------------|---------------------|
|
|   Gtr IV
|   W                  W
||------------------|-^0------------------|
||o-0---------------|-^0------------------|
||--9---------------|-^9------------------|
||--7---------------|-^7------------------|
||o-----------------|---------------------|
||------------------|---------------------|
|
|   Gtr V
|   W                 +W
||------------------|---------------------|
||o-5---------------|-(5)-----------------|
||------------------|---------------------|
||------------------|---------------------|
||o-----------------|---------------------|
||------------------|---------------------|


    E   E  E  E  E  E  E  E    E  E  E  E  E  E  E  E   4x
|---------------------------|---------------------------||
|---------------------------|--------------------------o||
|-(15)-15----15----15----15-|----14----14----14----14---||
|--12-----12----12----12----|-12----12----12----12------||
|---------------------------|--------------------------o||
|---------------------------|---------------------------||
|
|   E   E  E  E  E  E  E  E    E  E  E  E  E  E  E  E   4x
|---------------------------|---------------------------||
|---------------------------|--------------------------o||
|------15----15----15----15-|----14----14----14----14---||
|--12-----12----12----12----|-12----12----12----12------||
|---------------------------|--------------------------o||
|---------------------------|---------------------------||
|
|   E   E  Q     E  E  Q       Q     E  E  Q     Q      4x
|---------------------------|---------------------------||
|---3---5--6-----8--6--5----|--6-----8--6--5-----3-----o||
|---------------------------|---------------------------||
|---------------------------|---------------------------||
|---------------------------|--------------------------o||
|---------------------------|---------------------------||


   Verse
    N.C.
    Gtr I
    E E E E E E E E    E  E E E E E E  E
||------------------|---------------------|
||o-----------------|---------------------|
||----9---9---9---9-|-----9---9---9----9S=|
||--7---7---7---7---|--7----7---7---7-(7)S|
||o-----------------|---------------------|
||------------------|---------------------|
|
|   Gtr V
|   W                 +W
||------------------|---------------------|
||o-5---------------|-(5)-----------------|
||------------------|---------------------|
||------------------|---------------------|
||o-----------------|---------------------|
||------------------|---------------------|
|
|   Gtr III
|   H       E E Q      H        H
||------------------|---------------------|
||o-----------------|---------------------|
||--9-------9-------|---------------------|
||--------------5---|--7--------7---------|
||o-----------------|---------------------|
||------------------|---------------------|


    E  E  E  E  E  E  E  E    E  E  E   E  E  E  E   E
|--------------------------|----------------------------|
|--------------------------|----------------------------|
|-(15)15----15----15----15-|----14-----14----14-----14--|
|--12----12----12----12----|-12----12-----12----12------|
|--------------------------|----------------------------|
|--------------------------|----------------------------|
|
|   E  E  Q     E  E  Q       Q     E   E  Q     Q
|--------------------------|----------------------------|
|---3--5--6-----8--6--5----|--6-----8---6--5-----3------|
|--------------------------|----------------------------|
|--------------------------|----------------------------|
|--------------------------|----------------------------|
|--------------------------|----------------------------|
|
|   E  E  Q     Q     Q       Q     H           +E   E
|--------------------------|----------------------------|
|--------------------------|----------------------------|
|---7h=9-10-----9-----7----|----------------------------|
|--------------------------|--9S===[7]----------(7)-----|
|--------------------------|----------------------------|
|--------------------------|----------------------------|


  E E E E E E E E    E  E E E E E E  E
|-----------------|---------------------|
|-----------------|---------------------|
|---9---9---9---9-|-----9---9---9----9S=|
|-7---7---7---7---|--7----7---7---7-(7)S|
|-----------------|---------------------|
|-----------------|---------------------|
|
| W                 +W
|-----------------|---------------------|
|-5---------------|-(5)-----------------|
|-----------------|---------------------|
|-----------------|---------------------|
|-----------------|---------------------|
|-----------------|---------------------|
|
| H       E E Q      H        H
|-----------------|---------------------|
|-----------------|---------------------|
|-9-------9-------|---------------------|
|-------------5---|--7--------7---------|
|-----------------|---------------------|
|-----------------|---------------------|


    E  E  E  E  E  E  E  E    E  E  E  E  E  E   E   E
|--------------------------|----------------------------||
|--------------------------|---------------------------o||
|-(15)15----15----15----15-|----14----14----14------14--||
|--12----12----12----12----|-12----12----12-----12------||
|--------------------------|---------------------------o||
|--------------------------|----------------------------||
|
|   E  E  Q     E  E  Q       Q     E  E  Q      Q
|--------------------------|----------------------------||
|---3--5--6-----8--6--5----|--6-----8--6--5------3-----o||
|--------------------------|----------------------------||
|--------------------------|----------------------------||
|--------------------------|---------------------------o||
|--------------------------|----------------------------||
|
|   E  E  Q     Q     E  E    E  E  H           +Q
|--------------------------|----------------------------||
|--------------------------|---------------------------o||
|---7h=9-10-----9-----9S10-|-10S12-12----------(12)-----||
|--------------------------|----------------------------||
|--------------------------|---------------------------o||
|--------------------------|----------------------------||


 Chorus
             Gtr I
  W          E E E E E E E E   E E E E E E E  E
|----------|-----------------|-------------------|
|----------|-----------------|-------------------|
|----------|---9---9---9---9-|---9---9---9----9S=|
|----------|-7---7---7---7---|-7---7---7---7-(7)S|
|----------|-----------------|-------------------|
|----------|-----------------|-------------------|


    E   E  E  E  E  E  E  E    E  E  E  E  E  E  E  E
|---------------------------|-------------------------|
|---------------------------|-------------------------|
|-(15)-15----15----15----15-|----14----14----14----14-|
|--12-----12----12----12----|-12----12----12----12----|
|---------------------------|-------------------------|
|---------------------------|-------------------------|


  A5                Bb5        G5    A5
  Gtr II
  W            +Q   H    +Q    H     H
  |             |   |     |    |     |
  /             /   /     /    /     /

  Gtr III
  ~~
  H.      Q    +Q   H     Q    Q  Q  E E Q
|------------|---------------|--------------|
|------------|---------------|--------------|
|-9-------5--|-(5)--7-----5--|--------------|
|------------|---------------|-8--5---------|
|------------|---------------|-------7S8S7--|
|------------|---------------|--------------|


              Bb5          G5
                  5/4
  +H      +Q  Q    +H      H    +Q
   |       |  |     |      |     |
   /       /  /     /      /     /

   E E H      Q    +H      H    +Q
|----------------|------------------||
|--5h6-----------|------------------||
|-------------7--|-(7)/-------------||
|------7---------|---------5----(5)-||
|----------------|------------------||
|----------------|------------------||


  A5                Bb5        G5    A5
 4/4
  W            +Q   H    +Q    H     H
  |             |   |     |    |     |
  /             /   /     /    /     /

  ~~
  H.      Q    +Q   H     Q    Q  Q  E E Q
|------------|---------------|--------------|
|------------|---------------|--------------|
|-9-------5--|-(5)--7-----5--|--------------|
|------------|---------------|-8--5---------|
|------------|---------------|-------7S8S7--|
|------------|---------------|--------------|


              Bb5          G5
                  5/4
  +H      +Q  Q    +H      H    +Q
   |       |  |     |      |     |
   /       /  /     /      /     /

  +Q   H      Q    +H      H    +Q
|----------------|--------------------|
|----------------|--------------------|
|-------------7--|-(7)/---------------|
|------7---------|---------5----(5)---|
|-(7)------------|--------------------|
|----------------|--------------------|


   Outro
    N.C.
   4/4
    Gtr I
    E E E E E E E E    E  E E E E E E  E
||------------------|---------------------|
||o-----------------|---------------------|
||----9---9---9---9-|-----9---9---9----9S=|
||--7---7---7---7---|--7----7---7---7-(7)S|
||o-----------------|---------------------|
||------------------|---------------------|
|
|   Gtr III
|   W                 +W
||------------------|---------------------|
||o-----------------|---------------------|
||------------------|---------------------|
||--7---------------|-(7)-----------------|
||o-7---------------|-(7)-----------------|
||------------------|---------------------|


    E   E  E  E  E  E  E  E    E  E  E  E  E  E  E  E
|---------------------------|--------------------------|
|---------------------------|--------------------------|
|-(15)-15----15----15----15-|----14----14----14----14--|
|--12-----12----12----12----|-12----12----12----12-----|
|---------------------------|--------------------------|
|---------------------------|--------------------------|
|
|   W                          W
|---------------------------|--------------------------|
|---------------------------|--------------------------|
|---------------------------|--------------------------|
|---8-----------------------|--5-----------------------|
|---8-----------------------|--5-----------------------|
|---------------------------|--------------------------|


  E E E E E E E E    E  E E E E E E  E
|-----------------|---------------------|
|-----------------|---------------------|
|---9---9---9---9-|-----9---9---9----9S=|
|-7---7---7---7---|--7----7---7---7-(7)S|
|-----------------|---------------------|
|-----------------|---------------------|
|
| W                 +W
|-----------------|---------------------|
|-----------------|---------------------|
|-----------------|---------------------|
|-7---------------|-(7)-----------------|
|-7---------------|-(7)-----------------|
|-----------------|---------------------|


    E   E  E  E  E  E  E  E    E  E  E  E  E  E  E  E
|---------------------------|--------------------------||
|---------------------------|-------------------------o||
|-(15)-15----15----15----15-|----14----14----14----14--||
|--12-----12----12----12----|-12----12----12----12-----||
|---------------------------|-------------------------o||
|---------------------------|--------------------------||
|
|   W                          W
|---------------------------|--------------------------||
|---------------------------|-------------------------o||
|---------------------------|--------------------------||
|---8-----------------------|--5-----------------------||
|---8-----------------------|--5----------------------o||
|---------------------------|--------------------------||


    E E E E E E E E   E E E E E E E  E
||------------------|-------------------|
||o-----------------|-------------------|
||----9---9---9---9-|---9---9---9----9S=|
||--7---7---7---7---|-7---7---7---7-(7)S|
||o-----------------|-------------------|
||------------------|-------------------|
|
|   H       E E Q     H       H
||------------------|-------------------|
||o-----------------|-------------------|
||--9-------9-------|-------------------|
||--------------5---|-7-------7---------|
||o-----------------|-------------------|
||------------------|-------------------|


    E  E  E  E  E  E  E  E    E  E  E   E  E  E  E   E
|--------------------------|----------------------------|
|--------------------------|----------------------------|
|-(15)15----15----15----15-|----14-----14----14-----14--|
|--12----12----12----12----|-12----12-----12----12------|
|--------------------------|----------------------------|
|--------------------------|----------------------------|
|
|   E  E  Q     Q     Q       Q     H           +E   E
|--------------------------|----------------------------|
|--------------------------|----------------------------|
|---7h=9-10-----9-----7----|----------------------------|
|--------------------------|--9S===[7]----------(7)-----|
|--------------------------|----------------------------|
|--------------------------|----------------------------|


  E E E E E E E E   E E E E E E E  E
|-----------------|-------------------|
|-----------------|-------------------|
|---9---9---9---9-|---9---9---9----9S=|
|-7---7---7---7---|-7---7---7---7-(7)S|
|-----------------|-------------------|
|-----------------|-------------------|
|
| H       E E Q     H       H
|-----------------|-------------------|
|-----------------|-------------------|
|-9-------9-------|-------------------|
|-------------5---|-7-------7---------|
|-----------------|-------------------|
|-----------------|-------------------|


 1.
    E  E  E  E  E  E  E  E    E  E  E  E  E  E   E   E
|--------------------------|----------------------------||
|--------------------------|---------------------------o||
|-(15)15----15----15----15-|----14----14----14------14--||
|--12----12----12----12----|-12----12----12-----12------||
|--------------------------|---------------------------o||
|--------------------------|----------------------------||
|
|   E  E  Q     Q     E  E    E  E  H           +Q
|--------------------------|----------------------------||
|--------------------------|---------------------------o||
|---7h=9-10-----9-----9S10-|-10S12-12----------(12)-----||
|--------------------------|----------------------------||
|--------------------------|---------------------------o||
|--------------------------|----------------------------||


  2.
    E  E  E  E  E  E  E  E    E  E  E  E  E  E  E  E    +W             W
|--------------------------|-------------------------|-------------|---------*|
|--------------------------|-------------------------|-------------|---------*|
|-(15)15----15----15----15-|----14----14----14----14-|-(14)--------|---------*|
|--12----12----12----12----|-12----12----12----12----|-------------|---------*|
|--------------------------|-------------------------|-------------|---------*|
|--------------------------|-------------------------|-------------|---------*|
|
|   E  E  Q     Q     E  E    E  E  H           E  E     W            +W
|--------------------------|-------------------------|-------------|---------*|
|--------------------------|-------------------------|-------------|---------*|
|---7h=9-10-----9-----9S10-|-10S12-12----------12S14-|--14---------|-(14)----*|
|--------------------------|-------------------------|-------------|---------*|
|--------------------------|-------------------------|-------------|---------*|
|--------------------------|-------------------------|-------------|---------*|



Duration Legend
---------------
W - whole; H - half; Q - quarter; E - 8th; S - 16th; T - 32nd; X - 64th; a - acciaccatura
+ - note tied to previous; . - note dotted; .. - note double dotted
Uncapitalized letters represent notes that are staccato (1/2 duration)
Irregular groupings are notated above the duration line
Duration letters will always appear directly above the note/fret number it represents the
duration for.  Duration letters with no fret number below them represent rests.  Multi-
bar rests are notated in the form Wxn, where n is the number of bars to rest for.  Low
melody durations appear below the staff

Tablature Legend
----------------
 h   - hammer-on
 p   - pull-off
 b   - bend
 pb  - pre-bend
 r   - bend release (if no number after the r, then release immediately)
 /\  - slide into or out of (from/to "nowhere")
 s   - legato slide
 S   - shift slide
 - natural harmonic
[n]  - artificial harmonic
n(n) - tapped harmonic
 ~   - vibrato
 tr  - trill
 T   - tap
 TP  - trem. picking
 PM  - palm muting
\n/  - tremolo bar dip; n = amount to dip
 \n  - tremolo bar down
 n/  - tremolo bar up
/n\  - tremolo bar inverted dip
 =   - hold bend; also acts as connecting device for hammers/pulls
 <> - volume swell (louder/softer)
 x   - on rhythm slash represents muted slash
 o   - on rhythm slash represents single note slash

Misc Legend
-----------
 |  - bar
||  - double bar
||o - repeat start
o|| - repeat end
*|  - double bar (ending)
 :  - bar (freetime)
 $  - Segno
 &  - Coda
Tempo markers -  = BPM(8/16=s8/s16), where s8 = swing 8ths, s16 = swing 16ths

Добавлено: 12.06.2012
Другие материалы по этой песне:

Страница создана 11.05.2012
http://primanota.ru/borknagar/the-view-of-everlast-chords.htm
Привет, Гость.
Предлагаем пройти революционный курс по гитаре.
Подарок от PrimaNota.Ru, забирай!