PrimaNota.ru - самый крупный в мире бесплатный архив песенных текстов, аккордов, табулатур и нот


Borknagar - Future Reminiscence - текст песни, таба, видео

Регистрация Запомнить меня
Войти через:  Facebook Google Twitter Vk Yandex Mail.ru

Borknagar - Future Reminiscence - текст песни, таба, видео

Печатать
Просмотров: 153
-------------------------------------------------------------------------------
                             Future Reminiscence - Borknagar
-------------------------------------------------------------------------------
Tabbed by: guiguig
E-mail:

Tuning: Standard

 Riff 1
Guitar 1
e|-------------------------------------------------|
B|-------------------------------------------------|
G|-------------------------------------------------|
D|-------------------------------------------------|
A|-2-TP---10-TP---9-TP--7-TP--5-TP--4--TP----------|
E|-0-TP---8--TP---7-TP--5-TP--3-TP--2--TP----------|

Guitar 2
e|-------------------------------------------------|
B|-------------------------------------------------|
G|-------------------------------------------------|
D|-9-TP--------------------------------------------|
A|-7-TP---10-TP---9-TP--5--12--10--9---------------|
E|-0-TP---8--TP---7-TP--5--12--10--9---------------|



Riff 2
Guitar 1
e|-------------------------------------------------|
B|-------------------------------------------------|
G|-----------------------------7-TP----------------|
D|-3-TP------------5-TP--------7-TP----------------|
A|-3-TP------------5-TP--------5-TP----------------|
E|-1-TP------------3-TP----------------------------|

Guitar 2
e|-------------------------------------------------|
B|-------------------------------------------------|
G|-10-TP---12-TP--14-TP---12-TP---10-TP---7-TP-----|
D|-10-TP---12-TP--14-TP---12-TP---10-TP---7-TP-----|
A|-8--TP---10-TP--12-TP---10-TP---8--TP---5-TP-----|
E|-------------------------------------------------|



Riff 3 
e|-----------------------------------------------------------------|
B|-6--------6------------------6------6--------6-------------------|
G|-7--------7------------------7------7--------7-------------------|
D|-7--------7-------------5----7------7--------7-------------------|
A|-5--5--5--5-------------3----5------5--5--5--5-------------------|
E|----5--5-------6--5-~---3--------5-----5--5-----6--5-~---1--3----|



Riff 4
e|-----------------------------------------------------------------|
B|-----------------------------------------------------------------|
G|-----------------------------------------------------------------|
D|-----------------------------------------------------------------|
A|-2-------------4-------------7-------------7---------------------|
E|-0-0-0-0-0-0-0-2-2-2-2-2-2-2-5-5-5-5-5-5-5-5-5-5-5-5-5-5---------|

e|-----------------------------------------------------------------|
B|-----------------------------------------------------------------|
G|-----------------------------------------------------------------|
D|---------------4-------------7-------------7---------------------|
A|-2-------------2-2-2-2-2-2-2-5-5-5-5-5-5-5-5-5-5-5-5-5-5---------|
E|-0-0-0-0-0-0-0---------------------------------------------------|
 


Riff 5 (Accoustic part)
e|----------------------------------------------------------|
B|----------------------------------------------------------|
G|-----------------------5---5-5---5-5-5--------------------|
D|-2----2-2---4----4-4---7---7-7---7-7-7--------------------|
A|-2----2-2---4----4-4---7---7-7---7-7-7--------------------|
E|-0----0-0---2----2-2---5---5-5---5-5-5--------------------|

e|----------------------------------------------------------|
B|-----------------------6---6-6---6-6-6--------------------|
G|-----------------------7---7-7---7-7-7--------------------|
D|------------4---4-4----7---7-7---7-7-7--------------------|
A|-2---2--2---4---4-4----5---5-5---5-5-5--------------------|
E|-0---0-0----2---2-2---------------------------------------|



Riff 6
Guitar 1
e|---------0-----------------------------------------------------------|
B|---0---0--0--0----------3--------------------------------------------|
G|-----0-----0------4---4---4---4----------5----------------8----------|
D|--------------------4-------4------7---7---7---7----9---9---9---9----|
A|----------------2--------------------7-------7--------9-------9------|
E|-0-------------------------------5----------------7------------------|

e|---------0-----------------------------------------------------------|
B|---0---0---0---0---------3----------------5---------------7----------|
G|-----0-------0-----4---4---4---4----5---5---5---5---7---7---7---7----|
D|---------------------4-------4--------5-------5-------7-------7------|
A|-----------------2----------------3---------------5------------------|
E|-0-------------------------------------------------------------------|

Guitar2
e|---------------------------------------------------------------------|
B|---------------------------------------------------------------------|
G|-----------------4---------------------------------------------------|
D|-2---------------4---------------7---------------9-------------------|
A|-2---------------2---------------7---------------9-------------------|
E|-0-------------------------------5---------------7-------------------|

e|---------------------------------------------------------------------|
B|---------------------------------------------------------------------|
G|-9---------------4---------------5---------------7-------------------|
D|-9---------------4---------------5---------------7-------------------|
A|-7---------------2---------------3---------------5-------------------|
E|---------------------------------------------------------------------|



Riff 7
e|---------------------------------------------------------------------|
B|---------------------------------------------------------------------|
G|---------------------------------------------------------------------|
D|---------------------------------------------------------------------|
A|-7-~---7--7/9-~--7/9/12-~--12/14-~-----------------------------------|
E|---------------------------------------------------------------------|



Riff8
Guitar 1
e|---------------------------------------------------------------------|
B|---------------------------------------------------------------------|
G|---------------------------------------------------------------------|
D|-9-9-9-9--4-4-4-4--5-5-5-5--7-7-7-7----------------------------------|
A|-7-7-7-7--2-2-2-2--3-3-3-3--5-5-5-5----------------------------------|
E|-7-7-7-7--2-2-2-2--3-3-3-3--5-5-5-5----------------------------------|

Guitar 2 (play all with tremolo picking)
e|---------------------------------------------------------------------|
B|---------------------------------------------------------------------|
G|---------------------------------------------------------------------|
D|---------------------------------------7-----------------------------|
A|-12--14---9--10--12--10--12--7--9--10-----5--7--9--------------------|
E|---------------------------------------------------------------------|



Riff 9 
Guitar 1
e|---------------------------------------------------------------------|
B|---------------------------------------------------------------------|
G|---------------------------------------------------------------------|
D|---------------------------------------------------------------------|
A|-7-~---7--7/9-~--7/9/12-~--12/14-~-----------------------------------|
E|---------------------------------------------------------------------|

 Guitar 2
e|---------------------------------------------------------------------|
B|---------------------------------------------------------------------|
G|---------------------------------------------------------------------|
D|-14-~---14-14/12-~-14\12\10-~--12/14-~-------------------------------|
A|---------------------------------------------------------------------|
E|---------------------------------------------------------------------|

Song

Verse 1,2 and 3
Riff 1 x2
Riff 2 x2
Riff 1 x2
Riff 2 x2

Chorus
Riff 3 x2
Riff 4 x2 

Interlude
Riff 5 x2
Riff 6
Riff 7
Riff 8
Riff 9
Riff 8

i hope you'll enjoy it

************************************

| /   slide up
| \   slide down
| h   hammer-on
| p   pull-off
| ~   vibrato
| +   harmonic
| x   Mute note
| b   Bend
| pb  Pre-bend
| br  Bend release
| pbr Pre-bend release
| brb Bend release bend
| TP  Tremolo Picking
************************************
Добавлено: 01.08.2015
Другие материалы по этой песне:
  • Аккорды и текст

Страница создана 17.07.2012
http://primanota.ru/borknagar/future-reminiscence-chords.htm
Привет, Гость.
Предлагаем пройти революционный курс по гитаре.
Подарок от PrimaNota.Ru, забирай!