PrimaNota.ru - самый крупный в мире бесплатный архив песенных текстов, аккордов, табулатур и нот


Borknagar - The Beauty of Dead Cities - текст песни, бас-таба, видео

Регистрация Запомнить меня
Войти через:  Facebook Google Twitter Vk Yandex Mail.ru

Borknagar - The Beauty of Dead Cities - текст песни, бас-таба, видео

Печатать
Просмотров: 74
Tabbed by: 6METAL6BASSIST6
E-mail: petergriffinav@gmail.com

Tuning: BEADG

G|------------------------------------------------------------------------------------------------|
D|------------------------------------------------------------------------------------------------|
A|2-----------------------------------------------------------------------------4-----5-----4-----|
E|----------------------2-3-----------------------------0-----------------------------------------|
B|------------------------------------------------------------------------------------------------|

G|------------------------------------------------------------------------------------------------|
D|------------------------------------------------------------------------------------------------|
A|2-----------------------------------------------------------------------------4-----5-----4-----|
E|----------------------2-3-----------------------------0-----0-----------------------------------|
B|------------------------------------------------------------------------------------------------|

G|------------------------------------------------------------------------------------------------|
D|------------------------------------------------------------------------------------------------|
A|2-----------------------------------------------------------------------------4-----5-----4-----| x2
E|------------------2-----3-----------------------------0-----0-----3-----2-----------------------|
B|------------------------------------------------------------------------------------------------|

G|------------------------------------------------------------------------------------------------|
D|------------------------------------------------------------------------------------------------|
A|2-----------------------------------------------5-----------------------------------------------|
E|------------------2-----3-----------------------------------------------0-----------1-----------|
B|------------------------------------------------------------4-----------------------------------|

G|------------------------------------------------------------------------------------------------|
D|4-----------------------------------------------------------------------------------------------|
A|------------------------------------------------5-----------6-----------0-----------1-----------|
E|------------------2-----3-----------------------------------------------------------------------|
B|------------------------------------------------------------------------------------------------|

0:37

G|------------------------------------------------------------------------------------------------|.
D|------------------------------------------------------------------------------------------------|.
A|5-----------------------0-----------------------3-----------------------------------------------|.
E|------------------------------------------------------------------------3-----------------------|.
B|------------------------------------------------------------------------------------------------|.
                                                                                                   . x2
G|------------------------------------------------------------------------------------------------|.
D|------------------------------------------------------------------------------------------------|.
A|------------------------1-----------------------4-----------------------0-----------------------|.
E|1-----------------------------------------------------------------------------------------------|.
B|------------------------------------------------------------------------------------------------|.

1:00

G|------------------------------------------------------------------------------------------------|
D|------------------------------------------------------------------------------------------------|
A|2-----------------------------------------------------------------------------4-----5-----4-----|
E|----------------------2-3-----------------------------0-----0-----------------------------------|
B|------------------------------------------------------------------------------------------------|

G|------------------------------------------------------------------------------------------------------------|
D|------------------------------------------------------------------------------------------------------------|
A|2-----------------------------------------------------------------------------------------------------------|
E|----------------------2-3-----------------------------0-----------------------------------------------------|
B|------------------------------------------------------------------------------------------------------------|

1:13

G|------------------------------------------------------------------------------------------------|
D|------------------------------------------------------------------------------------------------|
A|2-----------------------------------------------------------------------------4-----5-----4-----| x2
E|------------------2-----3-----------------------------0-----0-----3-----2-----------------------|
B|------------------------------------------------------------------------------------------------|

G|------------------------------------------------------------------------------------------------|
D|------------------------------------------------------------------------------------------------|
A|2-----------------------------------------------5-----------------------------------------------|
E|------------------2-----3-----------------------------------------------0-----------1-----------|
B|------------------------------------------------------------4-----------------------------------|

G|------------------------------------------------------------------------------------------------|
D|4-----------------------------------------------------------------------------------------------|
A|------------------------------------------------5-----------6-----------0-----------1-----------|
E|------------------2-----3-----------------------------------------------------------------------|
B|------------------------------------------------------------------------------------------------|

1:37

G|------------------------------------------------------------------------------------------------|
D|------------------------------------------------------------------------------------------------| x4
A|------------------------1-----------------------------------------------------------------------|
E|1------------------------------------------------3----------------------4-----------------------|
B|------------------------------------------------------------------------------------------------|

2:00

G|------------------------------------------------------------------------------------------------|.
D|------------8-----------6-----------9-----6-----------------6-----------------------------------|.
A|6-----------------6-----------------------------8-----------------8-----9-----8-----6-----5-----|.
E|------------------------------------------------------------------------------------------------|.
B|------------------------------------------------------------------------------------------------|.
                                                                                                   . x2
G|------------------------------------------------------------------------------------------------|.
D|------------8-----------6-----------9-----6-----------------6-----------------------------------|.
A|6-----------------6-----------------------------8-----------------8-----9-----------------------|.
E|------------------------------------------------------------------------------------------------|.
B|------------------------------------------------------------------------------------------------|.

2:25

G|------------------------------------------------------------------------------------------------|
D|------------------------------------------------------------------------------------------------|
A|2-----------------------------------------------------------------------------------1-----------| x2
E|------------------------3-----------------------0-----------------------2-----------------------|
B|------------------------------------------------------------------------------------------------|

G|------------------------------------------------------------------------------------------------|
D|------------------------------------------------------------------------------------------------|
A|2-----------------------------------------------------------------------------------1-----------| x2
E|------------------2-----3-----------------------0-----------------3-----2-----------------------|
B|------------------------------------------------------------------------------------------------|

G|------------------------------------------------------------------------------------------------|
D|------------------4-----5-----------------4-----2-----------------------------------------------| x2
A|2-----------------------------------------------------------------------4-----------------------|
E|------------------------------------------------------------------------------------------------|
B|------------------------------------------------------------------------------------------------|

G|------------------------------------------------------------------------------------------------|
D|------------------------------------------------------------------------------------------------| x2
A|2-----------------------------------------------------------------------4-----------------------|
E|------------------2-----3-----------------2-----0-----------------------------------------------|
B|------------------------------------------------------------------------------------------------|

3:13

G|------------------------------------------------------------------------|
D|------------------------------------------------------------------------|
A|------------------------------------------------------------------------|
E|------------------------------------------------------------------------|
B|------------------------------------------------------------------------|

G|------------------------------------------------------------------------------------------------|
D|------------------------------------------------------------------------------------------------|
A|------------------------------------------------------------------------------------------------|
E|------------------------------------------------------------------------------------------------|
B|------------------------------------------------------------------------------------------------|

G|------------------------------------------------------------------------------------------------|
D|------------------------------------------------------------------------------------------------|
A|------------------------------------------------------------------------------------------------|
E|------------------------------------------------------------------------------------------------|
B|------------------------------------------------------------------------------------------------|

3:29

G|------------------------------------------------------------------------------------------------|
D|------------------------------------------------------------------------------------------------|
A|5-----------------------0-----------------------3-----------------------------------------------|
E|------------------------------------------------------------------------3-----------------------|
B|------------------------------------------------------------------------------------------------|

G|------------------------------------------------------------------------------------------------|
D|------------------------------------------------------------------------------------------------|
A|------------------------1-----------------------4-----------------------0-----------------------|
E|1-----------------------------------------------------------------------------------------------|
B|------------------------------------------------------------------------------------------------|

3:41

G|------------------------------------------------------------------------------------------------|
D|------------4-----------5-----------5-----2-----------------2-----------------------------------|
A|2-----------------2-----------------------------4-----------------4-----5-----------------------| x2
E|------------------------------------------------------------------------------------------------|
B|------------------------------------------------------------------------------------------------|

G|------------------------------------------------------------------------------------------------|
D|------------4-----------5-----------5-----2-----------------2-----------------------------------|
A|2-----------------2-----------------------------4-----------------4-----5-----4-----2-----1-----|
E|------------------------------------------------------------------------------------------------|
B|------------------------------------------------------------------------------------------------|

G|------------------------------------------------------------------------------------------------|
D|------------4-----------5-----------5-----2-----------------2-----------------------------------|
A|2-----------------2-----------------------------4-----------------4-----5-----------4-----------|
E|------------------------------------------------------------------------------------------------|
B|------------------------------------------------------------------------------------------------|

G|------------------------------------------------------------------------------|
D|------------------------------------------------------------------------------|
A|2-----------------------------------------------------------------------------|
E|------------------------------------------------------------------------------|
B|------------------------------------------------------------------------------|
Добавлено: 26.12.2015
Другие материалы по этой песне:
  • Аккорды и текст

Страница создана 08.08.2014
http://primanota.ru/borknagar/beauty-of-dead-cities-chords.htm
Привет, Гость.
Предлагаем пройти революционный курс по гитаре.
Подарок от PrimaNota.Ru, забирай!