PrimaNota.ru - самый крупный в мире бесплатный архив песенных текстов, аккордов, табулатур и нот


Boris - My Neighbor Satan - таба, видео

Регистрация Запомнить меня
Войти через:  Facebook Google Twitter Vk Yandex Mail.ru

Boris - My Neighbor Satan - таба, видео

Печатать
Просмотров: 172
I tabbed this from the Japanese version of Smile. I didn't tab the solo out because that 
part should be where you go nuts instead of following whatever Wata and Michio play! If 
you want to put this on another site, credit me as "Cosmicstar".

Wata's Part during soft parts:
        Q.      H         E      Q.     H        E     Q.     H        E
D#||---10--------------------|----------------------|---------5--------L--|
A#||-------------------------|--10------5--------L--|---------------------|
F#||*----------11---------L--|----------------------|--4------------------|
C#||*------------------------|----------------------|---------------------|
G#||-------------------------|----------------------|---------------------|
D#||-------------------------|----------------------|---------------------|


  W                 4x   Q.     H        E     Q.     H        E
--L-----------------||----------9--------L--|---------5--------L--|
--------------------||----------------------|---------------------|
-------------------*||*--7------------------|--2------------------|
-------------------*||*---------------------|---------------------|
--------------------||----------------------|---------------------|
--------------------||----------------------|---------------------|


  Q.     H        E     W                 4x    Q.      H         E
---------2--------L--|--L-----------------||---10--------------------|
---------------------|--------------------||-------------------------|
--4------------------|-------------------*||*----------11---------L--|
---------------------|-------------------*||*------------------------|
---------------------|--------------------||-------------------------|
---------------------|--------------------||-------------------------|


   Q.     H        E     Q.     H        E     W
----------------------|---------5--------L--|--L-----------------||
--10------5--------L--|---------------------|--------------------||
----------------------|--4------------------|-------------------*||
----------------------|---------------------|-------------------*||
----------------------|---------------------|--------------------||
----------------------|---------------------|--------------------||


   Q.     H        E     Q.     H        E     Q.     H        E
----------9--------L--|---------5--------L--|---------2--------L--|
----------------------|---------------------|---------------------|
*--7------------------|--2------------------|--4------------------|
*---------------------|---------------------|---------------------|
----------------------|---------------------|---------------------|
----------------------|---------------------|---------------------|


  W                       Q.      H         E      Q.     H        E
--L-----------------||---10--------------------|----------------------|
--------------------||-------------------------|--10------5--------L--|
-------------------*||*----------11---------L--|----------------------|
-------------------*||*------------------------|----------------------|
--------------------||-------------------------|----------------------|
--------------------||-------------------------|----------------------|


  Q.     H        E     W                      Q.      H         E
---------5--------L--|--L-----------------||--10--------------------|
---------------------|--------------------||------------------------|
--4------------------|-------------------*||----------11---------L--|
---------------------|-------------------*||------------------------|
---------------------|--------------------||------------------------|
---------------------|--------------------||------------------------|


   Q.      H         E      Q.      H         E     W
--10--------------------|--10--------------------|-------------------|
------------------------|------------------------|-------------------|
----------11---------L--|----------11---------L--|--L----------------|
------------------------|------------------------|-------------------|
------------------------|------------------------|-------------------|
------------------------|------------------------|-------------------|


   Q.      H        E      Q.      H        E      Q.      H        E
--12------14--------L--|--12------14--------L--|--12------14--------L--|
-----------------------|-----------------------|-----------------------|
-----------------------|-----------------------|-----------------------|
-----------------------|-----------------------|-----------------------|
-----------------------|-----------------------|-----------------------|
-----------------------|-----------------------|-----------------------|


  W                    Q.      H        E      Q.      H        E
--L----------------|--12------14--------L--|--12------14--------L--|
-------------------|-----------------------|-----------------------|
-------------------|-----------------------|-----------------------|
-------------------|-----------------------|-----------------------|
-------------------|-----------------------|-----------------------|
-------------------|-----------------------|-----------------------|


   Q.      H        E     W                    Q.      H        E
--12------14--------L--|--L----------------|--12------14--------L--|
-----------------------|-------------------|-----------------------|
-----------------------|-------------------|-----------------------|
-----------------------|-------------------|-----------------------|
-----------------------|-------------------|-----------------------|
-----------------------|-------------------|-----------------------|



Distortion Guitar (Under the soft parts):

Michio
       E  E  E  E  E  E  E  E     E  E  E  E  E  E  E  E
D#||---------------------------|--------------------------|
A#||---------------------------|--------------------------|
F#||*--7--7--7--7--7--7--7--7--|--------------------------|
C#||*--7--7--7--7--7--7--7--7--|--7--7--7--7--7--7--7--7--|
G#||---5--5--5--5--5--5--5--5--|--7--7--7--7--7--7--7--7--|
D#||---------------------------|--5--5--5--5--5--5--5--5--|


  E  E  E  E  E  E  E  E     E  E  E  E  E  E  E  E   4x
--------------------------|---------------------------||
--------------------------|---------------------------||
--------------------------|--------------------------*||
--9--9--9--9--9--9--9--9--|--9--9--9--9--9--9--9--9--*||
--9--9--9--9--9--9--9--9--|--9--9--9--9--9--9--9--9---||
--7--7--7--7--7--7--7--7--|--7--7--7--7--7--7--7--7---||

That goes on for forever until the breakdown which is...:

 E   E  E  E  E   Q    E      E  E  E  E  E   Q.
----------------------------|-------------------------|
----------------------------|-------------------------|
--7s--9--9--9-----------7s--|--9--9--9--9-------------|
--7s--9--9--9--7s--5----7s--|--9--9--9--9--7s--5------|
--5s--7--7--7--7s--5----5s--|--7--7--7--7--7s--5------|
---------------5s--3--------|--------------5s--3------|

And it changes slightly at one point, watch for it:

----------------------|----------------------|----------------------|
----------------------|----------------------|----------------------|
--7----7----7----7----|--5----5----5----5----|--5----5----5----5----|
--7----7----7----7----|--5----5----5----5----|--5----5----5----5----|
--5----5----5----5----|--3----3----3----3----|--3----3----3----3----|
----------------------|----------------------|----------------------|

And that's about it!
Добавлено: 17.04.2012
Другие материалы по этой песне:
  • Аккорды и текст

Страница создана 17.04.2012
http://primanota.ru/boris/my-neighbor-satan-chords.htm
Привет, Гость.
Предлагаем пройти революционный курс по гитаре.
Подарок от PrimaNota.Ru, забирай!