PrimaNota.ru - самый крупный в мире бесплатный архив песенных текстов, аккордов, табулатур и нот


Борис Гребенщиков - Пришел пить воду - аккорды и текст, видео

Регистрация Запомнить меня
Войти через:  Facebook Google Twitter Vk Yandex Mail.ru

Борис Гребенщиков - Пришел пить воду - аккорды и текст, видео

Печатать
Просмотров: 181
Пришел пить воду
Борис Гребенщиков
Каподастр на 2-м ладу 

Вступление:
  Dm               Dm
E----1----------0---- 1----------
B---3-3-------------3--3---------
G--2---2-----------2----2--------
D-0-----0-3h5---0------0-3h5-
A----------------------------------
E----------------------------------

Dm A7sus4 - 4p.

    Dm                            A7sus4 Dm A7sus4
Пришел пить воду, не смог узнать её вкус.
    Dm                              Gm6/B A7sus4
Пришел пить воду, не смог узнать её вкус.
 Dm 
Железные скобы вбиты в крылья,
  Gm6/B               Gm6/B 
Источник задушен золотой пылью,
A7sus4/G      A7sus4            Dm
 Закрой за мной - едва ли я вернусь.

Проигрыш: Dm A7sus4 - 2p.

Будешь в Москве, остерегайся говорить о святом.
Будешь в Москве, остерегайся говорить о святом.
            Dm                            Dm/C
Не то - кроткие, как голуби, поймают тебя.
Святые оседлают тебя.
Служители любви вобьют тебя в землю крестом.

Проигрыш:
      e----0--
      b-------
      g------- 
Dm    d-3h5--- - 2p.
      a-------
      e-------

    C                   Gm6/B     Dm Dm/F
А нищие духом блаженны - вопрос снят,
        C                 Gm6/B A7sus4     A7
Но имеющие уши - слышат,       и Покров свят.
Dm                    Dm/C
 Бессмысленны против и за.
   Gm6/B                  Gm6/B 
Что-то изменилось у тебя в глазах. 
A7sus4/G       A7sus4        Dm
Соль теряет силу и становится яд.

Проигрыш: Dm A7sus4 - 2p.

  Dm       A7sus4 Dm A7sus4
E-5--3-1-0--0-1---------------------
B-----------3-----------------------
G-----------------------2-----------
D-----------------------------------
A-----------------------------------
E-----------------------------------

  Dm          Gm6/B A7sus4
E-5--3-6-5-0-1-3-------------------
B----------------------------------
G----------------------------------
D----------------------------------
A----------------------------------
E----------------------------------

  Dm             Gm6/B Gm6/B 
E-10-------------------------------
B-----10-8-6-8-10-11-10-8-6--------
G----------------------------------
D----------------------------------
A----------------------------------
E----------------------------------

A7sus4/G A7sus4 Dm A7sus4 Dm A7sus4
E-6------------5-3----1----------------------------
B----------------------------------------------------
G----------------------------------------------------
D----------------------------------------------------
A----------------------------------------------------
E----------------------------------------------------

Пришел пить воду, не смог узнать её вкус.
Пришел пить воду, не смог узнать её вкус.
   Dm               Dm/c
Железные скобы вбиты в крылья,
Источник задушен золотой пылью,
Закрой за мной, я не вернусь.
Добавлено: 11.05.2016
Другие материалы по этой песне:
  • Аккорды и текст

Страница создана 11.05.2016
http://primanota.ru/boris-grebenshhikov/prishel-pit-vodu-chords.htm
Привет, Гость.
Предлагаем пройти революционный курс по гитаре.
Подарок от PrimaNota.Ru, забирай!