PrimaNota.ru - самый крупный в мире бесплатный архив песенных текстов, аккордов, табулатур и нот


Borialis - White Trash Hip Roc - бас-таба, видео

Регистрация Запомнить меня
Войти через:  Facebook Google Twitter Vk Yandex Mail.ru

Borialis - White Trash Hip Roc - бас-таба, видео

Печатать
Просмотров: 94
Song: White Trash Hip Roc
Album: Straight Out The Rug Room (Works with the version on the second album: What You Thought You Heard)
Band: Borialis
Tabbed by: Max Dietz

This is a fairly repetitive song and it was quite fun to tab out! 
Ratings and comments are welcome and appreciated :)

0:00
G-------------------------------|
D----------------------------2--|
A------------0-22-2~-22-2-525---|
E-0-0~-00-0---------------------| x7

0:39
G--------------------------------|
D--------------------------------|
A------------0-22-2~-020202~-1~--|
E-0-0~-00-0----------------------|x1

0:44
G---------------------------------|   G--------------------------------|   G---------------------------------|
D--------------2------------------|   D--------------2-----------------|   D-------------------------------2-|
A-0-0~-02-2-525------------2-1~---|   A-0-0~-02-2-525------------2-5~--|   A-0-0~-02--------2-2-2-2-2-2-525--|
E----------------0-0~-00-3~-------|x1 E----------------0-0~-00-3~------|x1 E--------3-3~--33-----------------|x1

1:01
G-------------------------------|
D----------------------------2--|
A------------0-22-2~-22-2-525---|
E-0-0~-00-0---------------------|x3

1:18
G--------------------------------|
D--------------------------------|
A------------0-22-2~-020202~-1~--|
E-0-0~-00-0----------------------|x1

1:24
G---------------------------------|   G--------------------------------|   G---------------------------------|
D--------------2------------------|   D--------------2-----------------|   D-------------------------------2-|
A-0-0~-02-2-525------------2-1~---|   A-0-0~-02-2-525------------2-5~--|   A-0-0~-02--------2-2-2-2-2-2-525--|
E----------------0-0~-00-3~-------|x1 E----------------0-0~-00-3~------|x1 E--------3-3~--33-----------------|x1

1:40 (Guitar Solo)
G-------------------------------|
D----------------------------2--|
A------------0-22-2~-22-2-525---|
E-0-0~-00-0---------------------| x7

2:19
G--------------------------------|
D--------------------------------|
A------------0-22-2~-020202~-1~--|
E-0-0~-00-0----------------------|x1

2:25
G---------------------------------|   G-------------------------------|   G----------------------------------|
D--------------2------------------|   D--------------2----------------|   D----------------------------------|
A-0-0~-02-2-525------------2-1~---|   A-0-0~-02-2-525------------2-5~-|   A-0-0~-02--------2-2-2-2-2-2-2~-1~-|
E----------------0-0~-00-3~-------|x1 E----------------0-0~-00-3~-----|x1 E--------3-3~--33------------------|x1

2:42
G---------------------------------|   G--------------------------------|   G-----------------------------|
D--------------2------------------|   D--------------2-----------------|   D-----------------------------|
A-0-0~-02-2-525------------2-1~---|   A-0-0~-02-2-525------------2-5~--|   A-0-0~-02--------2-2-2-2-2-2--|
E----------------0-0~-00-3~-------|x1 E----------------0-0~-00-3~------|x1 E--------3-3~--33-------------|x1

Key: ~ means hold the note
Добавлено: 10.08.2015
Другие материалы по этой песне:
  • Аккорды и текст

Страница создана 10.08.2015
http://primanota.ru/borialis/white-trash-hip-roc-chords.htm
Привет, Гость.
Предлагаем пройти революционный курс по гитаре.
Подарок от PrimaNota.Ru, забирай!