PrimaNota.ru - самый крупный в мире бесплатный архив песенных текстов, аккордов, табулатур и нот


Borgore - Nympho - текст песни, таба, видео

Регистрация Запомнить меня
Войти через:  Facebook Google Twitter Vk Yandex Mail.ru

Borgore - Nympho - текст песни, таба, видео

Печатать
Просмотров: 774
Info on Borgore:
http://en.wikipedia.org/wiki/Borgore
http://www.facebook.com/Borgore

Tuning: Drop C

Note: my guitar was in that tuning when i figured this out, but of course you can 
play it in Drop D, or Standard E tuning, for which just move everything down 2 frets
(e.g.: 8 becomes 6
7-->5
10-->8
11-->9
etc.)


   1x           3x
1:|-------------|-----------------|-------18---17------|
2:|-------------|-----------------|-10-10--------------|
3:|-------------|-----------------|--------------------|
4:|-8---7-------|-7-7-8---7-------|--------------------|
5:|-------------|-----------------|--------------------|
6:|-------------|-----------------|--------------------|

   3x                   4x
1:|-17-17-18---17------|---------------------|
2:|--------------------|-10-10-11---10-------|
3:|--------------------|---------------------|
4:|--------------------|---------------------|
5:|--------------------|---------------------|
6:|--------------------|---------------------|

   4x                   
1:|-17-17-18---17------|
2:|--------------------|
3:|--------------------|
4:|--------------------|
5:|--------------------|
6:|--------------------|

   1x                  3x
1:|-------------------|-----------------|
2:|-10-10-------------|-----------------|
3:|-------------------|-----------------|
4:|-------8---7-------|-7-7-8---7-------|
5:|-------------------|-----------------|
6:|-------------------|-----------------|

   1x             3x                   4x
1:|-18---17------|-17-17-18---17------|---------------------|
2:|--------------|--------------------|-10-10-11---10-------|
3:|--------------|--------------------|---------------------|
4:|--------------|--------------------|---------------------|
5:|--------------|--------------------|---------------------|
6:|--------------|--------------------|---------------------|

   4x                   
1:|-17-17-18---17------|
2:|--------------------|
3:|--------------------|
4:|--------------------|
5:|--------------------|
6:|--------------------|

   1x                  1x                1x
1:|-------------------|-----------------|-----------------|
2:|-10-10-------------|-----------------|-----------------|
3:|-------------------|-----------------|-----------------|
4:|-------8---7-------|-7-7-8---7-------|-7-7-------------|
5:|-------------------|-----------------|-----------------|
6:|-------------------|-----------------|-----------------|

"You'll be the two girls, she be the cup"

   1x              3x
1:|---------------|---------------------|
2:|-11---10-------|-10-10-11---10-------|
3:|---------------|---------------------|
4:|---------------|---------------------|
5:|---------------|---------------------|
6:|---------------|---------------------|

   1x                3x
1:|-----------------|-----------------|
2:|-----------------|-----------------|
3:|-----------------|-----------------|
4:|-5-7-7---8-------|-7-7-8---7-------|
5:|-----------------|-----------------|
6:|-----------------|-----------------|

   1x                          3x
1:|-10------------------------|---------------------|
2:|----11-10-11-11---10-------|-10-10-11---10-------|
3:|---------------------------|---------------------|
4:|---------------------------|---------------------|
5:|---------------------------|---------------------|
6:|---------------------------|---------------------|

   1x                2x
1:|-----------------|-----------------|-----------------|
2:|-----------------|-----------------|-----------------|
3:|-----------------|-----------------|-----------------|
4:|-5-7-7---8-------|-7-7-8---7-------|-7-7-------------|
5:|-----------------|-----------------|-----------------|
6:|-----------------|-----------------|-----------------|


   1x              3x
1:|---------------|---------------------|
2:|-11---10-------|-10-10-11---10-------|
3:|---------------|---------------------|
4:|---------------|---------------------|
5:|---------------|---------------------|
6:|---------------|---------------------|

   1x                3x
1:|-----------------|-----------------|
2:|-----------------|-----------------|
3:|-----------------|-----------------|
4:|-5-7-7---8-------|-7-7-8---7-------|
5:|-----------------|-----------------|
6:|-----------------|-----------------|

   1x                          3x
1:|-10------------------------|---------------------|
2:|----11-10-11-11---10-------|-10-10-11---10-------|
3:|---------------------------|---------------------|
4:|---------------------------|---------------------|
5:|---------------------------|---------------------|
6:|---------------------------|---------------------|

   1x                3x
1:|-----------------|-----------------|
2:|-----------------|-----------------|
3:|-----------------|-----------------|
4:|-5-7-7---8-------|-7-7-8---7-------|
5:|-----------------|-----------------|
6:|-----------------|-----------------|

01:56
(I'm not 100% sure, but to me this sounds pretty darn close.)
   3x
1:|---------------------------------------------------------------|
2:|---------------------------------------------------------------|
3:|-(7)------------(9)---(9)(9)(10)---(9)--------(9)(9)(10)---(9)-|
4:|---------------------------------------------------------------|
5:|--5--------------7-----7--7---8-----7----------7--7---8-----7--|
6:|---------------------------------------------------------------|

   1x
1:|---------------------------------------------------------------|
2:|---------------------------------------------------------------|
3:|-(7)------------(9)---(9)(9)(10)---(9)--------(9)(9)(10)-------|
4:|---------------------------------------------------------------|
5:|--5--------------7-----7--7---8-----7----------7--7---8--------|
6:|---------------------------------------------------------------|

There's a part here (02:25-02:51) I can't quite figure out, but the bass that goes 
with it is this:

   02:34
1:|---------|
2:|---------|
3:|---------|
4:|---------|
5:|-----8-7-|
6:|---------|

   02:41
1:|---------|
2:|---------|
3:|---------|
4:|-----5---|
5:|-7-8---8-|
6:|---------|

   02:47
1:|---------|
2:|---------|
3:|---------|
4:|-5-------|
5:|---8-7-8-|
6:|---------|


02:51
   1x              3x
1:|---------------|---------------------|
2:|-11---10-------|-10-10-11---10-------|
3:|---------------|---------------------|
4:|---------------|---------------------|
5:|---------------|---------------------|
6:|---------------|---------------------|

   1x                3x
1:|-----------------|-----------------|
2:|-----------------|-----------------|
3:|-----------------|-----------------|
4:|-5-7-7---8-------|-7-7-8---7-------|
5:|-----------------|-----------------|
6:|-----------------|-----------------|

   1x                          3x
1:|-10------------------------|---------------------|
2:|----11-10-11-11---10-------|-10-10-11---10-------|
3:|---------------------------|---------------------|
4:|---------------------------|---------------------|
5:|---------------------------|---------------------|
6:|---------------------------|---------------------|

   1x                3x
1:|-----------------|-----------------|
2:|-----------------|-----------------|
3:|-----------------|-----------------|
4:|-5-7-7---8-------|-7-7-8---7-------|
5:|-----------------|-----------------|
6:|-----------------|-----------------|


   03:23
1:|---------|
2:|---------|
3:|---------|
4:|-----5---|
5:|-7-8---8-|
6:|---------|

   03:29
1:|---------|
2:|---------|
3:|---------|
4:|-5-------|
5:|---8-7-8-|
6:|---------|
Добавлено: 24.09.2013
Другие материалы по этой песне:
  • Аккорды и текст

Страница создана 24.09.2013
http://primanota.ru/borgore/nympho-chords.htm
Привет, Гость.
Предлагаем пройти революционный курс по гитаре.
Подарок от PrimaNota.Ru, забирай!