PrimaNota.ru - самый крупный в мире бесплатный архив песенных текстов, аккордов, табулатур и нот


Boredoms - Acid Police - таба, видео

Регистрация Запомнить меня
Войти через:  Facebook Google Twitter Vk Yandex Mail.ru

Boredoms - Acid Police - таба, видео

Печатать
Просмотров: 147
----------------------------------------------------------------------------
                                                      Boredoms - ACID POLICE
----------------------------------------------------------------------------

OK, kids, this is a real easy one here, but it's a great song and fun to
play along with.  Off their 1994 release, Chocolate Synthesizer.

E-------------------------------|
B-------------------------------|
G---6-7-9-/--14---12-14-12--11--|
D---6-7-9-/--14---12-14-12--11--|
A---4-5-7-/--12---10-12-10--9---|
E-------------------------------|

E--------------------------------|
B--------------------------------|
G---6-7-9-/--12--11-9-7-6-/--14--|
D---6-7-9-/--10--11-9-7-6-/--14--|
A---4-5-7-/--10--9--7-5-4-/--12--|

And repeat the whole way through.


"Boredoms are like a moon on a lake. Only there is no moon and no lake. Only Boredoms."

http://en.wikipedia.org/wiki/Boredoms
Добавлено: 27.04.2012
Другие материалы по этой песне:
  • Аккорды и текст

Страница создана 27.04.2012
http://primanota.ru/boredoms/acid-police-chords.htm
Привет, Гость.
Предлагаем пройти революционный курс по гитаре.
Подарок от PrimaNota.Ru, забирай!