PrimaNota.ru - самый крупный в мире бесплатный архив песенных текстов, аккордов, табулатур и нот


Borat - Borats Guide To America - таба, бас-таба, видео

Регистрация Запомнить меня
Войти через:  Facebook Google Twitter Vk Yandex Mail.ru

Borat - Borats Guide To America - таба, бас-таба, видео

Печатать
Просмотров: 164
Guitar one (acoustic)


E||------18--18--17--18--17--15----|------15---------------------|
B||--15----------------------------|--18------18--16--16---------|
G||--------------------------------|-----------------------------|
D||--------------------------------|-----------------------------|
A||--------------------------------|-----------------------------|
E||--------------------------------|-----------------------------|

------17--17--15--17--15--------|-----------------------------|
--------------------------18----|--15--16--15------15---------|
--17----------------------------|--------------17-------------|
--------------------------------|-----------------------------|
--------------------------------|-----------------------------|
--------------------------------|-----------------------------|


------15--15------15--------------|-------------------------------|
--------------18------18--16--15--|------15-----------------------|
--15------------------------------|--17------17--15--14br---------|
----------------------------------|-------------------------------|
----------------------------------|-------------------------------|
----------------------------------|-------------------------------|

--------------15--14--------------|-----------------------------|
----------16----------16--15------|--15--------------15---------|
--14--17----------------------17--|------17--15--17-------------|
----------------------------------|-----------------------------|
----------------------------------|-----------------------------|
----------------------------------|-----------------------------|

------18--18--17--18--17--15----|------15---------------------|
--15----------------------------|--18------18--16--16---------|
--------------------------------|-----------------------------|
--------------------------------|-----------------------------|
--------------------------------|-----------------------------|
--------------------------------|-----------------------------|

------17--17--15--17--15--------|-----------------------------|
--------------------------18----|--15--16--15------15---------|
--17----------------------------|--------------17-------------|
--------------------------------|-----------------------------|
--------------------------------|-----------------------------|
--------------------------------|-----------------------------|

------15--15------15--------------|-------------------------------|
--------------18------18--16--15--|------15-----------------------|
--15------------------------------|--17------17--15--14br---------|
----------------------------------|-------------------------------|
----------------------------------|-------------------------------|
----------------------------------|-------------------------------|

--------------15--14--------------|-----------------------------|
----------16----------16--15------|--15--------------15---------|
--14--17----------------------17--|------17--15--17-------------|
----------------------------------|-----------------------------|
----------------------------------|-----------------------------|
----------------------------------|-----------------------------|


------18--18--17--18--17--15----|------15---------------------|
--15----------------------------|--18------18--16--16---------|
--------------------------------|-----------------------------|
--------------------------------|-----------------------------|
--------------------------------|-----------------------------|
--------------------------------|-----------------------------|


------17--17--15--17--15--------|-----------------------------|
--------------------------18----|--15--16--15------15---------|
--17----------------------------|--------------17-------------|
--------------------------------|-----------------------------|
--------------------------------|-----------------------------|
--------------------------------|-----------------------------|


------15--15------15--------------|-------------------------------|
--------------18------18--16--15--|------15-----------------------|
--15------------------------------|--17------17--15--14br---------|
----------------------------------|-------------------------------|
----------------------------------|-------------------------------|
----------------------------------|-------------------------------|

--------------15--14--------------|-----------------------------|
----------16----------16--15------|--15--------------15---------|
--14--17----------------------17--|------17--15--17-------------|
----------------------------------|-----------------------------|
----------------------------------|-----------------------------|
----------------------------------|-----------------------------|


------18--18--17--18--17--15----|------15---------------------|
--15----------------------------|--18------18--16--16---------|
--------------------------------|-----------------------------|
--------------------------------|-----------------------------|
--------------------------------|-----------------------------|
--------------------------------|-----------------------------|


------17--17--15--17--15--------|-----------------------------|
--------------------------18----|--15--16--15------15---------|
--17----------------------------|--------------17-------------|
--------------------------------|-----------------------------|
--------------------------------|-----------------------------|
--------------------------------|-----------------------------|

------15--15------15--------------|-------------------------------|
--------------18------18--16--15--|------15-----------------------|
--15------------------------------|--17------17--15--14br---------|
----------------------------------|-------------------------------|
----------------------------------|-------------------------------|
----------------------------------|-------------------------------|

--------------15--14--------------|-----------------------------||
----------16----------16--15------|--15--------------15---------||
--14--17----------------------17--|------17--15--17-------------||
----------------------------------|-----------------------------||
----------------------------------|-----------------------------||
----------------------------------|-----------------------------||

Guitar two (sitar)

E||--------------------------------------------|
B||-------<>11--<>11--<>10--<>11--<>10--<>8----|
G||--<>7---------------------------------------|
D||--------------------------------------------|
A||--------------------------------------------|
E||--------------------------------------------|


------------------------------------|
--------<>8-------------------------|
--<>10-------<>10--<>8--<>8---------|
------------------------------------|
------------------------------------|
------------------------------------|


--------------------------------------------|
--------<>10--<>10--<>8--<>10--<>8----------|
------------------------------------<>10----|
--<>10--------------------------------------|
--------------------------------------------|
--------------------------------------------|

-----------------------------------|
-----------------------------------|
--<>7--<>8--<>7--------<>7---------|
-----------------<>10--------------|
-----------------------------------|
-----------------------------------|


--------------------------------------------|
-------<>8--<>8--------<>8------------------|
-----------------<>10-------<>10--<>8--<>7--|
--<>8---------------------------------------|
--------------------------------------------|
--------------------------------------------|


--------------------------------------|
--------------------------------------|
--------<>7---------------------------|
--<>10-------<>10--<>8--<>7br---------|
--------------------------------------|
--------------------------------------|

--------------------------------------------|
------------------<>8--<>7------------------|
-------------<>8------------<>8--<>7--------|
--<>7--<>10---------------------------<>10--|
--------------------------------------------|
--------------------------------------------|


------------------------------------|
------------------------------------|
--<>7-------------------<>7---------|
-------<>10--<>8--<>10--------------|
------------------------------------|
------------------------------------|

--------------------------------------------|
-------<>11--<>11--<>10--<>11--<>10--<>8----|
--<>7---------------------------------------|
--------------------------------------------|
--------------------------------------------|
--------------------------------------------|


------------------------------------|
--------<>8-------------------------|
--<>10-------<>10--<>8--<>8---------|
------------------------------------|
------------------------------------|
------------------------------------|

--------------------------------------------|
--------<>10--<>10--<>8--<>10--<>8----------|
------------------------------------<>10----|
--<>10--------------------------------------|
--------------------------------------------|
--------------------------------------------|


-----------------------------------|
-----------------------------------|
--<>7--<>8--<>7--------<>7---------|
-----------------<>10--------------|
-----------------------------------|
-----------------------------------|

--------------------------------------------|
-------<>8--<>8--------<>8------------------|
-----------------<>10-------<>10--<>8--<>7--|
--<>8---------------------------------------|
--------------------------------------------|
--------------------------------------------|


--------------------------------------|
--------------------------------------|
--------<>7---------------------------|
--<>10-------<>10--<>8--<>7br---------|
--------------------------------------|
--------------------------------------|


--------------------------------------------|
------------------<>8--<>7------------------|
-------------<>8------------<>8--<>7--------|
--<>7--<>10---------------------------<>10--|
--------------------------------------------|
--------------------------------------------|

------------------------------------|
------------------------------------|
--<>7-------------------<>7---------|
-------<>10--<>8--<>10--------------|
------------------------------------|
------------------------------------|

--------------------------------------------|
-------<>11--<>11--<>10--<>11--<>10--<>8----|
--<>7---------------------------------------|
--------------------------------------------|
--------------------------------------------|
--------------------------------------------|


------------------------------------|
--------<>8-------------------------|
--<>10-------<>10--<>8--<>8---------|
------------------------------------|
------------------------------------|
------------------------------------|

--------------------------------------------|
--------<>10--<>10--<>8--<>10--<>8----------|
------------------------------------<>10----|
--<>10--------------------------------------|
--------------------------------------------|
--------------------------------------------|

-----------------------------------|
-----------------------------------|
--<>7--<>8--<>7--------<>7---------|
-----------------<>10--------------|
-----------------------------------|
-----------------------------------|


--------------------------------------------|
-------<>8--<>8--------<>8------------------|
-----------------<>10-------<>10--<>8--<>7--|
--<>8---------------------------------------|
--------------------------------------------|
--------------------------------------------|

--------------------------------------|
--------------------------------------|
--------<>7---------------------------|
--<>10-------<>10--<>8--<>7br---------|
--------------------------------------|
--------------------------------------|

--------------------------------------------|
------------------<>8--<>7------------------|
-------------<>8------------<>8--<>7--------|
--<>7--<>10---------------------------<>10--|
--------------------------------------------|
--------------------------------------------|

------------------------------------|
------------------------------------|
--<>7-------------------<>7---------|
-------<>10--<>8--<>10--------------|
------------------------------------|
------------------------------------|

--------------------------------------------|
-------<>11--<>11--<>10--<>11--<>10--<>8----|
--<>7---------------------------------------|
--------------------------------------------|
--------------------------------------------|
--------------------------------------------|


------------------------------------|
--------<>8-------------------------|
--<>10-------<>10--<>8--<>8---------|
------------------------------------|
------------------------------------|
------------------------------------|


--------------------------------------------|
--------<>10--<>10--<>8--<>10--<>8----------|
------------------------------------<>10----|
--<>10--------------------------------------|
--------------------------------------------|
--------------------------------------------|

-----------------------------------|
-----------------------------------|
--<>7--<>8--<>7--------<>7---------|
-----------------<>10--------------|
-----------------------------------|
-----------------------------------|

--------------------------------------------|
-------<>8--<>8--------<>8------------------|
-----------------<>10-------<>10--<>8--<>7--|
--<>8---------------------------------------|
--------------------------------------------|
--------------------------------------------|


--------------------------------------|
--------------------------------------|
--------<>7---------------------------|
--<>10-------<>10--<>8--<>7br---------|
--------------------------------------|
--------------------------------------|

--------------------------------------------|
------------------<>8--<>7------------------|
-------------<>8------------<>8--<>7--------|
--<>7--<>10---------------------------<>10--|
--------------------------------------------|
--------------------------------------------|

------------------------------------||
------------------------------------||
--<>7-------------------<>7---------||
-------<>10--<>8--<>10--------------||
------------------------------------||
------------------------------------||


Tablature Legend
----------------
L - tied note
x - dead note
g - grace note
(n) - ghost note
> - accentuded note
NH - natural harmonic
AH - artificial harmonic
TH - tapped harmonic
SH - semi harmonic
PH - pitch harmonic
h - hammer on
p - pull off
b - bend
br - bendRelease
pb - preBend
pbr - preBendRelease
brb - bendReleaseBend
\n/ - tremolo bar dip
\n - tremolo bar dive
-/n - tremolo bar Release up
/n\ - tremolo bar inverted dip
/n - tremolo bar return
-\n - tremolo bar Release down
S - shift slide
s - legato slide
/ -  slide into from below or out of upwards
\ -  slide into from above or out of downwards
~ - vibrato
W - wide vibrato
tr - trill
TP - tremolo picking
T - tapping
S - slap
P - pop
< - fade in
^ - brush up
v - brush down
Добавлено: 19.05.2012
Другие материалы по этой песне:
  • Аккорды и текст

Страница создана 09.04.2012
http://primanota.ru/borat/borats-guide-to-america-chords.htm
Привет, Гость.
Предлагаем пройти революционный курс по гитаре.
Подарок от PrimaNota.Ru, забирай!