PrimaNota.ru - самый крупный в мире бесплатный архив песенных текстов, аккордов, табулатур и нот


Boomerang - Kereta Laju - таба, видео

Регистрация Запомнить меня
Войти через:  Facebook Google Twitter Vk Yandex Mail.ru

Boomerang - Kereta Laju - таба, видео

Печатать
Просмотров: 37
GUITAR 1

E|--------|---------------------|---------------------|---------------------|---------------------|
B|--------|---------------------|---------------------|---------------------|---------------------|
G|--------|---------------------|---------------------|---------------------|---------------------|
D|--------|-8----8----8----9----|-9----9----8----8----|-8----9----9----9----|-8----8----8----9----|
A|--------|-7----7----7----7----|-7----7----7----7----|-7----7----7----7----|-7----7----7----7----|
E|--------|---------------------|---------------------|---------------------|---------------------|


E|---------------------|---------------------|---------------------|---------------------|
B|---------------------|---------------------|---------------------|---------------------|
G|---------------------|---------------------|---------------------|---------------------|
D|-9----9----8----8----|-8----9----9----9----|-8----8----8----9----|-9----9----8----8----|
A|-7----7----7----7----|-7----7----7----7----|-7----7----7----7----|-7----7----7----7----|
E|---------------------|---------------------|---------------------|---------------------|


E|---------------------|---------------------|---------------------|---------------------|
B|---------------------|---------------------|---------------------|---------------------|
G|---------------------|---------------------|---------------------|---------------------|
D|-8----9----9----9----|-8----8----8----9----|-9----9----8----8----|-8----9----9----9----|
A|-7----7----7----7----|-7----7----7----7----|-7----7----7----7----|-7----7----7----7----|
E|---------------------|---------------------|---------------------|---------------------|


E|------------------------|---------------------------|---------------------|------------------------|
B|------------------------|---------------------------|---------------------|------------------------|
G|------------------------|---------------------------|---------------------|------------------------|
D|-2-----------------2----|--------------2------------|------2----3----2----|-2-----------------2----|
A|-2-----------------2----|--------------2------------|------2----1----0----|-2-----------------2----|
E|-0----3---0---3----0----|-3---0---3----0----3---0---|-3----0--------------|-0----3---0---3----0----|


E|---------------------------|---------------------|------------------------|---------------------------|
B|---------------------------|---------------------|------------------------|---------------------------|
G|---------------------------|---------------------|------------------------|---------------------------|
D|--------------2------------|------2----3----2----|-2-----------------2----|--------------2------------|
A|--------------2------------|------2----1----0----|-2-----------------2----|--------------2------------|
E|-3---0---3----0----3---0---|-3----0--------------|-0----3---0---3----0----|-3---0---3----0----3---0---|


E|------------------------|------------------------|---------------------------|------------------------|
B|------------------------|------------------------|---------------------------|------------------------|
G|------------------------|------------------------|---------------------------|------------------------|
D|------2----0---2--------|-2-----------------2----|--------------2------------|------2----0---2--------|
A|------2------------2----|-2-----------------2----|--------------2------------|------2------------2----|
E|-3----0-----------------|-0----3---0---3----0----|-3---0---3----0----3---0---|-3----0-----------------|


E|------------------------|---------------------------|------------------------|------------------------|
B|------------------------|---------------------------|------------------------|------------------------|
G|------------------------|---------------------------|------------------------|------------------------|
D|-7----0---0---7----9----|-7---0---9----7----7---0---|-7----9----7---0---9----|-7----7---0---7----9----|
A|-5----0---0---5----7----|-5---0---7----5----5---0---|-5----7----5---0---7----|-5----5---0---5----7----|
E|------0---0-------------|-0---0-------------0---0---|-----------0---0--------|------0---0-------------|


E|---------------------------|------------------------------|---------------------------|
B|---------------------------|------------------------------|---------------------------|
G|--------------5------------|-5-------5------------5-------|-5------------5-------5----|
D|-7---0---9----5----7---0---|-5---0---5----7---0---5---0---|-5----7---0---5---0---5----|
A|-5---0---7----3----5---0---|-3---0---3----5---0---3---0---|-3----5---0---3---0---3----|
E|-0---0-------------0---0---|-----0--------0---0-------0---|------0---0-------0--------|


E|---------------------------|---------------------|---------------------|------------------------|
B|---------------------------|---------------------|---------------------|------------------------|
G|---------5-----------------|---------------------|---------------------|------------------------|
D|-7---0---5---0---8----8----|-8----9----9----9----|-8----8----8----9----|-9----9----7----7---0---|
A|-5---0---3---0---7----7----|-7----7----7----7----|-7----7----7----7----|-7----7----5----5---0---|
E|-0---0-------0-------------|---------------------|---------------------|----------------0---0---|


E|------------------------------|---------------------------|------------------------------|
B|------------------------------|---------------------------|------------------------------|
G|---------9------------9-------|----------------------9----|---------9--------------------|
D|-----7---9----7---0---9---7---|-7----7---0---7---7---9----|-7---0---9---7---7----7---0---|
A|-5---5---7----5---0---7---5---|-5----5---0---5---5---7----|-5---0---7---5---5----5---0---|
E|-----0--------0---0-------0---|------0---0-------0--------|-0---0-------0--------0---0---|


E|------------------------------|---------------------------|------------------------------|
B|------------------------------|---------------------------|------------------------------|
G|---------9------------9-------|-5------------5-------5----|---------5-------5------------|
D|-7---7---9----7---0---9---0---|-5----7---0---5---0---5----|-7---0---5---0---5----7---0---|
A|-5---5---7----5---0---7---0---|-3----5---0---3---0---3----|-5---0---3---0---3----5---0---|
E|-----0--------0---0-------0---|------0---0-------0--------|-0---0-------0--------0---0---|


E|------------------------------|---------------------|---------------------|---------------------|
B|------------------------------|---------------------|---------------------|---------------------|
G|-5-------5------------5-------|-9----9----9----9----|-9----9----9----9----|-9----9----9----9----|
D|-5---0---5----7---0---5---0---|-8----8----8----9----|-9----9----8----8----|-8----9----9----9----|
A|-3---0---3----5---0---3---0---|-7----7----7----7----|-7----7----7----7----|-7----7----7----7----|
E|-----0--------0---0-------0---|---------------------|-3-------------------|---------------------|


E|---------------------------|------------------------------|------------------------------|
B|---------------------------|------------------------------|------------------------------|
G|----------------------9----|---------9--------------------|---------9------------9-------|
D|-7----7---0---7---0---9----|-0---0---9---0---7----0---0---|-7---0---9----0---0---9---0---|
A|-5----5---0---5---0---7----|-0---0---7---0---5----0---0---|-5---0---7----0---0---7---0---|
E|------0---0-------0--------|-0---0-------0--------0---0---|-----0--------0---0-------0---|


E|---------------------------|------------------------------|------------------------------|
B|---------------------------|------------------------------|------------------------------|
G|----------------------9----|---------9--------------------|------------------------------|
D|-7----7---0---7---0---9----|-0---0---9---0---5----7---0---|-5---0---5----7---0---5---0---|
A|-5----5---0---5---0---7----|-0---0---7---0---3----5---0---|-3---0---3----5---0---3---0---|
E|------0---0-------0--------|-0---0-------0--------0---0---|-----0--------0---0-------0---|


E|---------------------------|---------------------------|---------------------|---------------------|
B|---------------------------|---------------------------|---------------------|---------------------|
G|---------------------------|-----------------9----9----|-9----9----9----9----|-9----9----9----9----|
D|-5----7---0---5---0---5----|-7---0---5---0---8----8----|-8----9----9----9----|-8----8----8----9----|
A|-3----5---0---3---0---3----|-5---0---3---0---7----7----|-7----7----7----7----|-7----7----7----7----|
E|------0---0-------0--------|-0---0-------0-------------|---------------------|---------------------|


E|---------------------|---------------------|---------------------|---------------------|
B|---------------------|---------------------|---------------------|---------------------|
G|-9----9----9----9----|-9----9----9----9----|-9----9----9----9----|-9----9----9----9----|
D|-9----9----8----8----|-8----9----9----9----|-8----8----8----9----|-9----9----8----8----|
A|-7----7----7----7----|-7----7----7----7----|-7----7----7----7----|-7----7----7----7----|
E|---------------------|---------------------|---------------------|---------------------|


E|---------------------|---------------------|---------------------|---------------------|
B|---------------------|---------------------|---------------------|---------------------|
G|-9----9----9----9----|-9----9----9----9----|-9----9----9----9----|-9----9----9----9----|
D|-8----9----9----9----|-8----8----8----9----|-9----9----8----8----|-8----9----9----9----|
A|-7----7----7----7----|-7----7----7----7----|-7----7----7----7----|-7----7----7----7----|
E|---------------------|---------------------|---------------------|---------------------|


E|---------------------|------------------------|------------------------|------------------------|
B|---------------------|------------------------|------------------------|------------------------|
G|-9----9----9----9----|-9----9-----------------|------------------------|-----------2---2--------|
D|-8----8----8----9----|-9----9----2---2--------|------2---2-------------|-----------2---2--------|
A|-7----7----7----7----|-7----7----2---2--------|------2---2-------------|-----------0---0--------|
E|---------------------|-----------0---0--------|------0---0-------------|------------------------|


E|------------------------|------------------------|------------------------|---------------------------|
B|------------------------|------------------------|------------------------|---------------------------|
G|------2---2-------------|------------------------|------------------------|--------------2---2--------|
D|------2---2-------------|-----------2---2--------|------2---2-------------|-2---2--------2---2--------|
A|------0---0-------------|-----------2---2--------|------2---2-------------|-2---2--------0---0--------|
E|------------------------|-----------0---0--------|------0---0-------------|-0---0---------------------|


E|------------------------|---------------------------|------------------------|---------------------------|
B|------------------------|---------------------------|------------------------|---------------------------|
G|------2---2-------------|-2---2---------------------|------------------------|--------------2---2--------|
D|------2---2-------------|-2---2--------2---2--------|------2---2-------------|-2---2--------2---2--------|
A|------0---0-------------|-0---0--------2---2--------|------2---2-------------|-2---2--------0---0--------|
E|------------------------|--------------0---0--------|------0---0-------------|-0---0---------------------|


E|------------------------|---------------------------|------------------------|---------------------------|
B|------------------------|---------------------------|------------------------|---------------------------|
G|------2---2-------------|-2---2---------------------|------------------------|--------------2---2--------|
D|------2---2-------------|-2---2--------2---2--------|------2---2-------------|-2---2--------2---2--------|
A|------0---0-------------|-0---0--------2---2--------|------2---2-------------|-2---2--------0---0--------|
E|------------------------|--------------0---0--------|------0---0-------------|-0---0---------------------|


E|------------------------|---------------------------|------------------------|---------------------------|
B|------------------------|---------------------------|------------------------|---------------------------|
G|------2---2-------------|-2---2---------------------|------------------------|--------------2---2--------|
D|------2---2-------------|-2---2--------2---2--------|------2---2-------------|-2---2--------2---2--------|
A|------0---0-------------|-0---0--------2---2--------|------2---2-------------|-2---2--------0---0--------|
E|------------------------|--------------0---0--------|------0---0-------------|-0---0---------------------|


E|------------------------|---------------------------|------------------------|---------------------------|
B|------------------------|---------------------------|------------------------|---------------------------|
G|------2---2-------------|-2---2---------------------|------------------------|--------------2---2--------|
D|------2---2-------------|-2---2--------2---2--------|------2---2-------------|-2---2--------2---2--------|
A|------0---0-------------|-0---0--------2---2--------|------2---2-------------|-2---2--------0---0--------|
E|------------------------|--------------0---0--------|------0---0-------------|-0---0---------------------|


E|------------------------|---------------------|---------------------|---------------------|
B|------------------------|---------------------|---------------------|---------------------|
G|------2---2-------------|-2---2---------------|---------------------|---------------------|
D|------2---2-------------|-2---2-----8----8----|-8----9----9----9----|-8----8----8----9----|
A|------0---0-------------|-0---0-----7----7----|-7----7----7----7----|-7----7----7----7----|
E|------------------------|---------------------|---------------------|---------------------|


E|---------------------|---------------------|---------------------|---------------------|
B|---------------------|---------------------|---------------------|---------------------|
G|---------------------|---------------------|---------------------|---------------------|
D|-9----9----8----8----|-8----9----9----9----|-8----8----8----9----|-9----9----8----8----|
A|-7----7----7----7----|-7----7----7----7----|-7----7----7----7----|-7----7----7----7----|
E|---------------------|---------------------|---------------------|---------------------|


E|---------------------|---------------------|---------------------|---------------------|
B|---------------------|---------------------|---------------------|---------------------|
G|---------------------|---------------------|---------------------|---------------------|
D|-8----9----9----9----|-8----8----8----9----|-9----9----8----8----|-8----9----9----9----|
A|-7----7----7----7----|-7----7----7----7----|-7----7----7----7----|-7----7----7----7----|
E|---------------------|---------------------|---------------------|---------------------|


E|------------------------|---------------------------|------------------------|------------------------|
B|------------------------|---------------------------|------------------------|------------------------|
G|------------------------|---------------------------|------------------------|------------------------|
D|-2-----------------2----|--------------2------------|------2----0---2--------|-2-----------------2----|
A|-2-----------------2----|--------------2------------|------2------------2----|-2-----------------2----|
E|-0----3---0---3----0----|-3---0---3----0----3---0---|-3----0-----------------|-0----3---0---3----0----|


E|---------------------------|------------------------|------------------------|---------------------------|
B|---------------------------|------------------------|------------------------|---------------------------|
G|---------------------------|------------------------|------------------------|---------------------------|
D|--------------2------------|------2----0---2--------|-7----0---0---7----9----|-7---0---9----7----7---0---|
A|--------------2------------|------2------------2----|-5----0---0---5----7----|-5---0---7----5----5---0---|
E|-3---0---3----0----3---0---|-3----0-----------------|------0---0-------------|-0---0-------------0---0---|


E|------------------------|------------------------|---------------------------|----------------------------|
B|------------------------|------------------------|---------------------------|----------------------------|
G|------------------------|------------------------|--------------5------------|-5-------5------------5-----|
D|-7----9----7---0---9----|-7----7---0---7----9----|-7---0---9----5----7---0---|-5---0---5----7---0---5---0-|
A|-5----7----5---0---7----|-5----5---0---5----7----|-5---0---7----3----5---0---|-3---0---3----5---0---3---0-|
E|-----------0---0--------|------0---0-------------|-0---0-------------0---0---|-----0--------0---0-------0-|


E|---------------------------|---------------------------|---------------------|---------------------|
B|---------------------------|---------------------------|---------------------|---------------------|
G|-5------------5-------5----|---------5-----------------|---------------------|---------------------|
D|-5----7---0---5---0---5----|-7---0---5---0---8----8----|-8----9----9----9----|-8----8----8----9----|
A|-3----5---0---3---0---3----|-5---0---3---0---7----7----|-7----7----7----7----|-7----7----7----7----|
E|------0---0-------0--------|-0---0-------0-------------|---------------------|---------------------|


E|------------------------|------------------------------|---------------------------|
B|------------------------|------------------------------|---------------------------|
G|------------------------|---------9------------9-------|----------------------9----|
D|-9----9----7----7---0---|-----7---9----7---0---9---7---|-7----7---0---7---7---9----|
A|-7----7----5----5---0---|-5---5---7----5---0---7---5---|-5----5---0---5---5---7----|
E|----------------0---0---|-----0--------0---0-------0---|------0---0-------0--------|


E|------------------------------|------------------------------|---------------------------|
B|------------------------------|------------------------------|---------------------------|
G|---------9--------------------|---------9------------9-------|-5------------5-------5----|
D|-7---0---9---7---7----7---0---|-7---7---9----7---0---9---0---|-5----7---0---5---0---5----|
A|-5---0---7---5---5----5---0---|-5---5---7----5---0---7---0---|-3----5---0---3---0---3----|
E|-0---0-------0--------0---0---|-----0--------0---0-------0---|------0---0-------0--------|


E|------------------------------|------------------------------|---------------------|
B|------------------------------|------------------------------|---------------------|
G|---------5-------5------------|-5-------5------------5-------|-9----9----9----9----|
D|-7---0---5---0---5----7---0---|-5---0---5----7---0---5---0---|-8----8----8----9----|
A|-5---0---3---0---3----5---0---|-3---0---3----5---0---3---0---|-7----7----7----7----|
E|-0---0-------0--------0---0---|-----0--------0---0-------0---|---------------------|


E|---------------------|---------------------|---------------------------|------------------------------|
B|---------------------|---------------------|---------------------------|------------------------------|
G|-9----9----9----9----|-9----9----9----9----|----------------------9----|---------9--------------------|
D|-9----9----8----8----|-8----9----9----9----|-7----7---0---7---0---9----|-0---0---9---0---7----0---0---|
A|-7----7----7----7----|-7----7----7----7----|-5----5---0---5---0---7----|-0---0---7---0---5----0---0---|
E|-3-------------------|---------------------|------0---0-------0--------|-0---0-------0--------0---0---|


E|------------------------------|---------------------------|------------------------------|
B|------------------------------|---------------------------|------------------------------|
G|---------9------------9-------|----------------------9----|---------9--------------------|
D|-7---0---9----0---0---9---0---|-7----7---0---7---0---9----|-0---0---9---0---5----7---0---|
A|-5---0---7----0---0---7---0---|-5----5---0---5---0---7----|-0---0---7---0---3----5---0---|
E|-----0--------0---0-------0---|------0---0-------0--------|-0---0-------0--------0---0---|


E|------------------------------|---------------------------|---------------------------|
B|------------------------------|---------------------------|---------------------------|
G|------------------------------|---------------------------|-----------------9----9----|
D|-5---0---5----7---0---5---0---|-5----7---0---5---0---5----|-7---0---5---0---8----8----|
A|-3---0---3----5---0---3---0---|-3----5---0---3---0---3----|-5---0---3---0---7----7----|
E|-----0--------0---0-------0---|------0---0-------0--------|-0---0-------0-------------|


E|---------------------|---------------------|---------------------|---------------------|
B|---------------------|---------------------|---------------------|---------------------|
G|-9----9----9----9----|-9----9----9----9----|-9----9----9----9----|-9----9----9----9----|
D|-8----9----9----9----|-8----8----8----9----|-9----9----8----8----|-8----9----9----9----|
A|-7----7----7----7----|-7----7----7----7----|-7----7----7----7----|-7----7----7----7----|
E|---------------------|---------------------|---------------------|---------------------|


E|---------------------|---------------------------|------------------------------|
B|---------------------|---------------------------|------------------------------|
G|-9----9----9----9----|-9----9--------------------|------------------------------|
D|-8----8----8----9----|-9----9--------------------|------------------------------|
A|-7----7----7----7----|-7----7--------------------|------------------------------|
E|---------------------|-----------5---7---5---0---|-3---5---0---0---3---5---6----|


E|---------------------------------|------------------------------|------------------------------|
B|---------------------------------|------------------------------|------------------------------|
G|---------------------------------|------------------------------|------------------------------|
D|---------------------------------|------------------------------|------------------------------|
A|---------------------------------|------------------------------|------------------------------|
E|-5---7---5---0---3---5---0---0---|-3---5---6----5---7---5---0---|-3---5---0---0---3---5---6----|


E|---------------------------------|---------------------------|------------------------|
B|---------------------------------|---------------------------|------------------------|
G|---------------------------------|---------------------------|------------------------|
D|---------------------------------|--------------2---2--------|------2---2-------------|
A|---------------------------------|--------------2---2--------|------2---2-------------|
E|-5---7---5---0---3---5---0---0---|-3---5---6----0---0--------|------0---0-------------|


E|---------------------------|------------------------|-------------------|---------------------------|
B|---------------------------|------------------------|-------------------|---------------------------|
G|---------------------------|------------------------|-------------------|---------------------------|
D|-2---2-------------2---2---|-----------2---2--------|------2---2--------|-2---2-------------2---2---|
A|-2---2-------------2---2---|-----------2---2--------|------2---2--------|-2---2-------------2---2---|
E|-0---0-------------0---0---|-----------0---0--------|------0---0--------|-0---0-------------0---0---|


E|-----------------|--------|
B|-----------------|--------|
G|-----------------|--------|
D|-----------2-----|-2------|
A|-----------2-----|-2------|
E|-----------0-----|-0------|





GUITAR 2

E|--------|---------------------------------|---------------------------------|-------------------------------|
B|--------|---------------------------------|---------------------------------|-------------------------------|
G|--------|---------------------------------|---------------------------------|-------------------------------|
D|--------|-----5---7---9---7---5-------5---|-9---7---5-----------5---7---9---|-7---5-------5---9---7---5-----|
A|--------|-7-----------------------7-------|-------------5---7---------------|---------7-------------------5-|
E|--------|---------------------------------|---------------------------------|-------------------------------|


E|---------------------------------|---------------------------------|---------------------------------|
B|---------------------------------|---------------------------------|---------------------------------|
G|---------------------------------|---------------------------------|---------------------------------|
D|-----5---7---9---7---5-------5---|-9---7---5-----------5---7---9---|-7---5-------5---9---7---5-------|
A|-7-----------------------7-------|-------------5---7---------------|---------7-------------------5---|
E|---------------------------------|---------------------------------|---------------------------------|


E|---------------------------------|---------------------------------|---------------------------------|
B|---------------------------------|---------------------------------|---------------------------------|
G|---------------------------------|---------------------------------|---------------------------------|
D|-----5-------9---7---5-------5---|-9---7---5-----------5---7---9---|-7---5-------5---9---7---5-------|
A|-7-----------------------7-------|-------------5---7---------------|---------7-------------------5---|
E|---------------------------------|---------------------------------|---------------------------------|


E|---------------------------------|---------------------------------|---------------------------------|
B|---------------------------------|---------------------------------|---------------------------------|
G|---------------------------------|---------------------------------|---------------------------------|
D|-----5---7---9---7---5-------5---|-9---7---5-----------5---7---9---|-7---5-------5---9---7---5-------|
A|-7-----------------------7-------|-------------5---7---------------|---------7-------------------5---|
E|---------------------------------|---------------------------------|---------------------------------|


E|---------------------------|------------------------------|------------------------|
B|---------------------------|------------------------------|------------------------|
G|---------------------------|------------------------------|------------------------|
D|---------------------------|------------------------------|------------------------|
A|---------------------------|------------------------------|--------------1----0----|
E|-0----3---0---3---5---0----|-3---0---3---5---0----3---0---|-3---5---0--------------|


E|---------------------------|------------------------------|------------------------|
B|---------------------------|------------------------------|------------------------|
G|---------------------------|------------------------------|------------------------|
D|---------------------------|------------------------------|------------------------|
A|---------------------------|------------------------------|--------------1----0----|
E|-0----3---0---3---5---0----|-3---0---3---5---0----3---0---|-3---5---0--------------|


E|---------------------------|------------------------------|---------------------------|
B|---------------------------|------------------------------|---------------------------|
G|---------------------------|------------------------------|---------------------------|
D|---------------------------|------------------------------|--------------0---2--------|
A|---------------------------|------------------------------|----------------------2----|
E|-0----3---0---3---5---0----|-3---0---3---5---0----3---0---|-3---5---0-----------------|


E|---------------------------|------------------------------|---------------------------|
B|---------------------------|------------------------------|---------------------------|
G|---------------------------|------------------------------|---------------------------|
D|---------------------------|------------------------------|--------------0---2--------|
A|---------------------------|------------------------------|----------------------2----|
E|-0----3---0---3---5---0----|-3---0---3---5---0----3---0---|-3---5---0-----------------|


E|---------------------|---------------------|---------------------|---------------------|
B|---------------------|---------------------|---------------------|---------------------|
G|---------------------|---------------------|---------------------|---------------------|
D|---------------------|---------------------|---------------------|---------------------|
A|-5----5----5----7----|-7----7----5----5----|-5----7----7----7----|-5----5----5----7----|
E|---------------------|---------------------|---------------------|---------------------|


E|------------------------|------------------------------|---------------------------|
B|------------------------|------------------------------|---------------------------|
G|----------------5-------|-4---5--------5-------4---5---|------5-------4---5--------|
D|--------------------5---|------------------5-----------|----------5----------------|
A|-7----7----3------------|---------3--------------------|-3--------------------3----|
E|------------------------|------------------------------|---------------------------|


E|------------------------------|------------------------------|---------------------------|
B|------------------------------|------------------------------|---------------------------|
G|-5-------4---5----------------|------------------------------|---------------------------|
D|-----5-----------2----5---2---|-5---0---2----5---2---5---0---|-2----5---2---5---0---2----|
A|------------------------------|------------------------------|---------------------------|
E|------------------------------|------------------------------|---------------------------|


E|---------------------------|---------------------|---------------------|---------------------|
B|---------------------------|---------------------|---------------------|---------------------|
G|---------------------------|---------------------|---------------------|---------------------|
D|-5---2---5---0-------------|---------------------|---------------------|---------------------|
A|-----------------5----5----|-5----7----7----7----|-5----5----5----7----|-7----7----5----5----|
E|---------------------------|---------------------|---------------------|---------------------|


E|---------------------|---------------------------|------------------------------|
B|---------------------|---------------------------|------------------------------|
G|---------------------|------5-------4---5--------|-5-------4---5--------5-------|
D|---------------------|----------5----------------|-----5--------------------5---|
A|-5----7----7----7----|-3--------------------3----|-----------------3------------|
E|---------------------|---------------------------|------------------------------|


E|------------------------------|---------------------------|------------------------------|
B|------------------------------|---------------------------|------------------------------|
G|-4---5--------5-------4---5---|---------------------------|------------------------------|
D|------------------5-----------|-2----5---2---5---0---2----|-5---2---5---0---2----5---2---|
A|---------3--------------------|---------------------------|------------------------------|
E|------------------------------|---------------------------|------------------------------|


E|------------------------------|---------------------|---------------------|---------------------|
B|------------------------------|---------------------|---------------------|---------------------|
G|------------------------------|---------------------|---------------------|---------------------|
D|-5---0---2----5---2---5---0---|---------------------|---------------------|---------------------|
A|------------------------------|-5----5----5----7----|-7----7----5----5----|-5----7----7----7----|
E|------------------------------|---------------------|---------------------|---------------------|


E|---------------------|------------------------|------------------------------|---------------------------|
B|---------------------|------------------------|------------------------------|---------------------------|
G|---------------------|----------------5-------|-4---5--------5-------4---5---|------5-------4---5--------|
D|---------------------|--------------------5---|------------------5-----------|----------5----------------|
A|-5----5----5----7----|-7----7----3------------|---------3--------------------|-3--------------------3----|
E|---------------------|------------------------|------------------------------|---------------------------|


E|---------------------------------|---------------------------------|---------------------------------|
B|---------------------------------|---------------------------------|---------------------------------|
G|-5-------4---5-------------------|---------------------------------|---------------------------------|
D|-----5---------------5---7---9---|-7---5-------5---9---7---5-------|-----5---7---9---7---5-------5---|
A|-----------------7---------------|---------7-------------------5---|-7-----------------------7-------|
E|---------------------------------|---------------------------------|---------------------------------|


E|---------------------------------|---------------------------------|---------------------------------|
B|---------------------------------|---------------------------------|---------------------------------|
G|---------------------------------|---------------------------------|---------------------------------|
D|-9---7---5-----------5---7---9---|-7---5-------5---9---7---5-------|-----5---7---9---7---5-------5---|
A|-------------5---7---------------|---------7-------------------5---|-7-----------------------7-------|
E|---------------------------------|---------------------------------|---------------------------------|


E|---------------------------------|---------------------------------|---------------------------------|
B|---------------------------------|---------------------------------|---------------------------------|
G|---------------------------------|---------------------------------|---------------------------------|
D|-9---7---5-----------5---7---9---|-7---5-------5---9---7---5-------|-----5---7---9---7---5-------5---|
A|-------------5---7---------------|---------7-------------------5---|-7-----------------------7-------|
E|---------------------------------|---------------------------------|---------------------------------|


E|---------------------------------|---------------------------------|---------------------------------|
B|---------------------------------|---------------------------------|---------------------------------|
G|---------------------------------|---------------------------------|---------------------------------|
D|-9---7---5-----------5---7---9---|-7---5-------5---9---7---5-------|-----5---7---9---7---5-------5---|
A|-------------5---7---------------|---------7-------------------5---|-7-----------------------7-------|
E|---------------------------------|---------------------------------|---------------------------------|


E|-----------------------------|---------------------------|-----------------------------|
B|-----------------------------|---------------------------|-----------------------------|
G|-----------------------------|---------------------------|-----------------------------|
D|-9---7---5-------------------|-5---5---------------------|------7--9----7----7---------|
A|-------------5---7-----7--7--|----------5---7-------5----|-7---------------------5--7--|
E|-----------------------------|------------------7--------|-----------------------------|


E|------------------------------|--------------------------|---------------------------|
B|------------------------------|--------------------------|---------------------------|
G|------------------------------|--------------------------|---------------------------|
D|-5---7----------------5-------|-5------------------------|-5---5---------------------|
A|--------------5---7-------7---|----------5---7-----7--7--|----------5---7-------5----|
E|----------7-------------------|------7-------------------|------------------7--------|


E|---------------------|-----------------------------------|--------------------------|
B|---------------------|-----------------------------------|--------------------------|
G|---------------------|-----------------------7-------7---|--------------------------|
D|------5----7---------|---------5-------7--9------7-------|-5------------------------|
A|-7-------------------|-5---7-------7---------------------|----------5---7-----7--7--|
E|-----------------7---|-----------------------------------|------7-------------------|


E|---------------------------|---------------------------|---------------------------------|
B|---------------------------|---------------------------|---------------------------------|
G|---------------------------|---------------------------|-----7---------------------------|
D|-5---5---------------------|------7--9----7----7-------|-----------------7---------------|
A|----------5---7-------5----|-7-------------------------|-5-------------------------------|
E|------------------7--------|-----------------------7---|---------0---5-------0---3---0---|


E|----------------------------------|---------------------------|---------------------------|
B|----------------------------------|---------------------------|---------------------------|
G|----------------------------------|---------------------------|---------------------------|
D|----5------5------5---------------|-5---5---------------------|------7--9----7---5---7----|
A|-7------7------7------7-----7--7--|----------5---7-------5----|-7-------------------------|
E|----------------------------------|------------------7--------|---------------------------|


E|---------------------------------|----------------------------|---------------------------|
B|---------------------------------|----------------------------|---------------------------|
G|---------------------------------|----------------------------|---------------------------|
D|-7---9---7---5---7---9---7---5---|----------------------------|-5---5---------------------|
A|---------------------------------|------5---------7----7---7--|----------5---7-------5----|
E|---------------------------------|-7---------7----------------|------------------7--------|


E|------------------------------|-------------------------------------|----------------------------|
B|------------------------------|-------------------------------------|----------------------------|
G|------------------------------|-7--9--7-------7---9--12-9-----------|----------------------------|
D|------7--9----7---5---7---9---|-----------9-----------------12--9---|-7----5---------------------|
A|-7----------------------------|-------------------------------------|-----------7---7----7----7--|
E|------------------------------|-------------------------------------|----------------------------|


E|---------------------------|--------------------------|----------------------------------------|
B|---------------------------|--------------------------|----------------------------------------|
G|---------------------------|--------------------------|----------------7--7--------------------|
D|-5---5---------------------|------7--9----7-----------|-5---7----7--9--------9--9--8--8--7--7--|
A|----------5---7-------5----|-7------------------5--7--|----------------------------------------|
E|------------------7--------|--------------------------|----------------------------------------|


E|---------------------------|------------------------------|---------------------------|
B|---------------------------|------------------------------|---------------------------|
G|---------------------------|------------------------------|---------------------------|
D|-5-----------------5-------|-5---7--------5-------5---7---|------5-------5---7--------|
A|-7--------5---7--------7---|---------7--------7-----------|-7--------7-----------7----|
E|------7--------------------|------------------------------|---------------------------|


E|------------------------------|------------------------------|---------------------------|
B|------------------------------|------------------------------|---------------------------|
G|------------------------------|------------------------------|---------------------------|
D|-5-------5---7--------5-------|-5---7--------5-------5---7---|------5-------5---7--------|
A|-----7-----------7--------7---|---------7--------7-----------|-7--------7-----------7----|
E|------------------------------|------------------------------|---------------------------|


E|---------------------------------|---------------------------------|---------------------------------|
B|---------------------------------|---------------------------------|---------------------------------|
G|---------------------------------|---------------------------------|---------------------------------|
D|-5-------5---7-------5---7---9---|-7---5-------5---9---7---5-------|-----5---7---9---7---5-------5---|
A|-----7-----------7---------------|---------7-------------------5---|-7-----------------------7-------|
E|---------------------------------|---------------------------------|---------------------------------|


E|---------------------------------|---------------------------------|---------------------------|
B|---------------------------------|---------------------------------|---------------------------|
G|---------------------------------|---------------------------------|---------------------------|
D|-9---7---5-----------5---7---9---|-7---5-------5---9---7---5-------|---------------------------|
A|-------------5---7---------------|---------7-------------------5---|---------------------------|
E|---------------------------------|---------------------------------|-0----3---0---3---5---0----|


E|------------------------------|---------------------------|---------------------------|
B|------------------------------|---------------------------|---------------------------|
G|------------------------------|---------------------------|---------------------------|
D|------------------------------|--------------0---2--------|---------------------------|
A|------------------------------|----------------------2----|---------------------------|
E|-3---0---3---5---0----3---0---|-3---5---0-----------------|-0----3---0---3---5---0----|


E|------------------------------|---------------------------|---------------------|
B|------------------------------|---------------------------|---------------------|
G|------------------------------|---------------------------|---------------------|
D|------------------------------|--------------0---2--------|---------------------|
A|------------------------------|----------------------2----|-5----5----5----7----|
E|-3---0---3---5---0----3---0---|-3---5---0-----------------|---------------------|


E|---------------------|---------------------|---------------------|------------------------|
B|---------------------|---------------------|---------------------|------------------------|
G|---------------------|---------------------|---------------------|----------------5-------|
D|---------------------|---------------------|---------------------|--------------------5---|
A|-7----7----5----5----|-5----7----7----7----|-5----5----5----7----|-7----7----3------------|
E|---------------------|---------------------|---------------------|------------------------|


E|------------------------------|---------------------------|------------------------------|
B|------------------------------|---------------------------|------------------------------|
G|-4---5--------5-------4---5---|------5-------4---5--------|-5-------4---5----------------|
D|------------------5-----------|----------5----------------|-----5-----------2----5---2---|
A|---------3--------------------|-3--------------------3----|------------------------------|
E|------------------------------|---------------------------|------------------------------|


E|------------------------------|---------------------------|---------------------------|
B|------------------------------|---------------------------|---------------------------|
G|------------------------------|---------------------------|---------------------------|
D|-5---0---2----5---2---5---0---|-2----5---2---5---0---2----|-5---2---5---0-------------|
A|------------------------------|---------------------------|-----------------5----5----|
E|------------------------------|---------------------------|---------------------------|


E|---------------------|---------------------|---------------------|---------------------|
B|---------------------|---------------------|---------------------|---------------------|
G|---------------------|---------------------|---------------------|---------------------|
D|---------------------|---------------------|---------------------|---------------------|
A|-5----7----7----7----|-5----5----5----7----|-7----7----5----5----|-5----7----7----7----|
E|---------------------|---------------------|---------------------|---------------------|


E|---------------------------|------------------------------|------------------------------|
B|---------------------------|------------------------------|------------------------------|
G|------5-------4---5--------|-5-------4---5--------5-------|-4---5--------5-------4---5---|
D|----------5----------------|-----5--------------------5---|------------------5-----------|
A|-3--------------------3----|-----------------3------------|---------3--------------------|
E|---------------------------|------------------------------|------------------------------|


E|---------------------------|------------------------------|------------------------------|
B|---------------------------|------------------------------|------------------------------|
G|---------------------------|------------------------------|------------------------------|
D|-2----5---2---5---0---2----|-5---2---5---0---2----5---2---|-5---0---2----5---2---5---0---|
A|---------------------------|------------------------------|------------------------------|
E|---------------------------|------------------------------|------------------------------|


E|---------------------|---------------------|---------------------|---------------------|
B|---------------------|---------------------|---------------------|---------------------|
G|---------------------|---------------------|---------------------|---------------------|
D|---------------------|---------------------|---------------------|---------------------|
A|-5----5----5----7----|-7----7----5----5----|-5----7----7----7----|-5----5----5----7----|
E|---------------------|---------------------|---------------------|---------------------|


E|------------------------|------------------------------|---------------------------|
B|------------------------|------------------------------|---------------------------|
G|----------------5-------|-4---5--------5-------4---5---|------5-------4---5--------|
D|--------------------5---|------------------5-----------|----------5----------------|
A|-7----7----3------------|---------3--------------------|-3--------------------3----|
E|------------------------|------------------------------|---------------------------|


E|---------------------------------|---------------------------------|---------------------------------|
B|---------------------------------|---------------------------------|---------------------------------|
G|-5-------4---5-------------------|---------------------------------|---------------------------------|
D|-----5---------------5---7---9---|-7---5-------5---9---7---5-------|-----5---7---9---7---5-------5---|
A|-----------------7---------------|---------7-------------------5---|-7-----------------------7-------|
E|---------------------------------|---------------------------------|---------------------------------|


E|---------------------------------|---------------------------------|---------------------------------|
B|---------------------------------|---------------------------------|---------------------------------|
G|---------------------------------|---------------------------------|---------------------------------|
D|-9---7---5-----------5---7---9---|-7---5-------5---9---7---5-------|-----5---7---9---7---5-------5---|
A|-------------5---7---------------|---------7-------------------5---|-7-----------------------7-------|
E|---------------------------------|---------------------------------|---------------------------------|


E|---------------------------------|------------------------------|---------------------------------|
B|---------------------------------|------------------------------|---------------------------------|
G|---------------------------------|------------------------------|---------------------------------|
D|-9---7---5-----------------------|------------------------------|---------------------------------|
A|-------------5-------------------|------------------------------|---------------------------------|
E|-----------------5---7---5---0---|-3---5---0---0---3---5---6----|-5---7---5---0---3---5---0---0---|


E|------------------------------|------------------------------|---------------------------------|
B|------------------------------|------------------------------|---------------------------------|
G|------------------------------|------------------------------|---------------------------------|
D|------------------------------|------------------------------|---------------------------------|
A|------------------------------|------------------------------|---------------------------------|
E|-3---5---6----5---7---5---0---|-3---5---0---0---3---5---6----|-5---7---5---0---3---5---0---0---|


E|------------------------------|-------------------------------------|-----------------------------------|
B|------------------------------|-------------------------------------|-----------------------------------|
G|------------------------------|-------------------------------------|-----------------------------------|
D|------------------------------|-------------------------------------|-----------------------------------|
A|------------------------------|-5--7--5-------------------5--7--5---|-----------------5--7--5-----------|
E|-3---5---6----0---3---5---7---|-----------0---3---5---7-------------|-0---3---5---7-------------0---3---|


E|-----------------------------------|-------------------------------------|----------------------------------|
B|-----------------------------------|-------------------------------------|----------------------------------|
G|-----------------------------------|-------------------------------------|----------------------------------|
D|-----------------------------------|-------------------------------------|----------------------------------|
A|---------5--7--5-------------------|-5--7--5-------------------5--7--5---|-----------------5--7--5----------|
E|-5---7-------------0---3---5---7---|-----------0---3---5---7-------------|-0---3---5---7-------------0---3--|


E|-------------------------|--------|
B|-------------------------|--------|
G|-------------------------|--------|
D|-------------------------|--------|
A|---------5--7--5---------|--------|
E|-5---7-------------0-----|--------|




MELODY

E|--------|--------|--------|--------|--------|-----------7------------|------------------------|
B|--------|--------|--------|--------|--------|-----------10---10--8---|------8----8-------8----|
G|--------|--------|--------|--------|--------|------------------------|-9-------------9--------|
D|--------|--------|--------|--------|--------|------------------------|------------------------|
A|--------|--------|--------|--------|--------|------------------------|------------------------|
E|--------|--------|--------|--------|--------|------------------------|------------------------|


E|------------------------|--------------------------------|------------------------|
B|-10---10--8--------8----|-------------------10---10--8---|------8----8-------8----|
G|--------------9---------|-9-7--9--7----7-----------------|-9-------------9--------|
D|------------------------|-----------9--------------------|------------------------|
A|------------------------|--------------------------------|------------------------|
E|------------------------|--------------------------------|------------------------|


E|------------------------|-----------15----12-15-|-15---12-15-12----12-15-12-15-12----12-15-|
B|-10---10--8---8----15---|-15---15---------------|---------------15----------------15-------|
G|------------------------|-----------------------|------------------------------------------|
D|------------------------|-----------------------|------------------------------------------|
A|------------------------|-----------------------|------------------------------------------|
E|------------------------|-----------------------|------------------------------------------|


E|-12-15-12----12-15-12----------------------------|-----------------------------------|
B|----------15----------15-12-14-12-------14-12----|---------15------------------------|
G|----------------------------------14-12-------14-|-12-14--------14-12----14-12-------|
D|-------------------------------------------------|--------------------14-------14-12-|
A|-------------------------------------------------|-----------------------------------|
E|-------------------------------------------------|-----------------------------------|


E|----------------------------------------|---------------------------|-------------------------|
B|----------------------------------------|-12--12--------12--12--12--|-12---15-----------------|
G|----------------------------------------|-12--12--------12--14--14--|-----------14---14---14--|
D|-14-12-14-12----14-12------------12-14--|-----------14--------------|-------------------------|
A|-------------14-------14-12-------------|---------------------------|-------------------------|
E|----------------------------12----------|---------------------------|-------------------------|


E|---------------------------------------|------------12---12---|-12--12--12--12--12--12----------|
B|-------------------14--12-14-12-15-15--|-15---15----15---15---|-14--14--15--14--14--12--11--12--|
G|-14--14-12----12-----------------------|----------------------|---------------------------------|
D|-----------14--------------------------|----------------------|---------------------------------|
A|---------------------------------------|----------------------|---------------------------------|
E|---------------------------------------|----------------------|---------------------------------|


E|---------------------------------------------------------|
B|-14--12--11-12-15-12-11-12-11-12-15-12-11-12-15-12-11-10-|
G|---------------------------------------------------------|
D|---------------------------------------------------------|
A|---------------------------------------------------------|
E|---------------------------------------------------------|


-----------------------------------------------------------|
-11-12-10-11-12-11-10-11-12-11-10-11-12-11-10-8-----8---8--|
-------------------------------------------------9---------|
-----------------------------------------------------------|
-----------------------------------------------------------|
-----------------------------------------------------------|


E|----------------------|-----15----15---12-15-12-15-|-12-12-15-12-15-12--12-15-12-15-12-17-12-15-12-17|
B|-10-----------15--15--|-12-------------------------|-------------------------------------------------|
G|------9---------------|----------------------------|-------------------------------------------------|
D|----------------------|----------------------------|-------------------------------------------------|
A|----------------------|----------------------------|-------------------------------------------------|
E|----------------------|----------------------------|-------------------------------------------------|


E|-12-15-12-15-12-15-12-17-12-15-12-17-12-17-15-12-|----------------15-17-17----17-|
B|-------------------------------------------------|-17-15-12-15-17----------------|
G|-------------------------------------------------|-------------------------------|
D|-------------------------------------------------|-------------------------------|
A|-------------------------------------------------|-------------------------------|
E|-------------------------------------------------|-------------------------------|


E|-17-17-17-17-17-17-17-17-17-17-17-17-17-17-17-17-|---------|
B|-------------------------------------------------|---------|
G|-------------------------------------------------|---------|
D|-------------------------------------------------|---------|
A|-------------------------------------------------|---------|
E|-------------------------------------------------|---------|


-17-17-17-17-17-17-17-17-17-17-17-15-16-17-16-15-16-17-16-1715|
--------------------------------------------------------------|
--------------------------------------------------------------|
--------------------------------------------------------------|
--------------------------------------------------------------|
--------------------------------------------------------------|


E|-1617-16-15-16-17-16-15-16-17-16-15-16-17-16-15-16-17-16-15-16-17|---------|
B|-----------------------------------------------------------------|---------|
G|-----------------------------------------------------------------|---------|
D|-----------------------------------------------------------------|---------|
A|-----------------------------------------------------------------|---------|
E|-----------------------------------------------------------------|---------|


-12-17-15-12-15-12-12-17-15----------------15--|
----------------------------17-15-12-15-17-----|
-----------------------------------------------|
-----------------------------------------------|
-----------------------------------------------|
-----------------------------------------------|


E|----15-----------------------15------|------------------------------|---------------------------|
B|-17------17-15---------15-17----17---|-----17------17------15-------|---------------------------|
G|---------------16-14-16--------------|-16------15------14------12---|------12--12--14--14---12--|
D|-------------------------------------|------------------------------|-14------------------------|
A|-------------------------------------|------------------------------|---------------------------|
E|-------------------------------------|------------------------------|---------------------------|


E|---------------------------|--------|--------|--------|--------|--------|--------|
B|-15----15------------------|--------|--------|--------|--------|--------|--------|
G|---------------------------|--------|--------|--------|--------|--------|--------|
D|---------------------------|--------|--------|--------|--------|--------|--------|
A|---------------------------|--------|--------|--------|--------|--------|--------|
E|---------------------------|--------|--------|--------|--------|--------|--------|
Добавлено: 07.04.2016
Другие материалы по этой песне:

Страница создана 23.11.2013
http://primanota.ru/boomerang/kereta-laju-chords.htm
Привет, Гость.
Предлагаем пройти революционный курс по гитаре.
Подарок от PrimaNota.Ru, забирай!