PrimaNota.ru - самый крупный в мире бесплатный архив песенных текстов, аккордов, табулатур и нот


Boom Boom Kid - Julio - таба, видео

Регистрация Запомнить меня
Войти через:  Facebook Google Twitter Vk Yandex Mail.ru

Boom Boom Kid - Julio - таба, видео

Печатать
Просмотров: 105
A5               E5
Hey! give me a phone call
   F#5                     C#5
I wanna talk to you ¿about old? glory days
      D5                 A5
and please give me your hand
     E5              E5
and back again, and back again


   A5      E5
July is a month of year
  F#5     C#5
July is a month of year so...
D5          A5
 so easy to, so easy to
E5             E5
 back to be friends

A5               E5
Hey! give me a phone call
   F#5                     C#5
I wanna talk to you ¿about old? glory days
      D5                 A5
and please give me your hand
     E5              E5
and back again, and back again


   A5      E5
July is a month of year
  F#5     C#5
July is a month of year so...
D5          A5
 so easy to, so easy to
E5             E5
 back to be friends

A5 E5 F#5 C#5 D5 A5 E5

Solo (so so)
e------------------------------------------------------|
B------------------------------------------------------|
G-5b-5br-0-3~------3---5-7-10-9--8-7-5-7--7-8-7-10-8-7-|
D--------------3-5---5---------------------------------|
A------------------------------------------------------|
E------------------------------------------------------|

e-----------------------------------------------------|
B-----------------------------------------------------|
G-7-8-7---------7-8-7-10-8-7--7-8-7-10-8-7--7-8-7-----|
D-------8-9-10-------------------------------------9~-|
A-----------------------------------------------------|
E-----------------------------------------------------|

   A5      E5
July is a month of year
  F#5     C#5
July is a month of year so...
D5          A5
 so easy to, so easy to
E5         E5          E5             A5
 back to be, back to be, back to be friends
gaston_perkins@hotmail.com
Добавлено: 10.06.2013
Другие материалы по этой песне:
  • Аккорды и текст

Страница создана 10.06.2013
http://primanota.ru/boom-boom-kid/julio-chords.htm
Привет, Гость.
Предлагаем пройти революционный курс по гитаре.
Подарок от PrimaNota.Ru, забирай!