PrimaNota.ru - самый крупный в мире бесплатный архив песенных текстов, аккордов, табулатур и нот


Booker, T - Soul Limbo (feat. The M Gs) - бас-таба, видео

Регистрация Запомнить меня
Войти через:  Facebook Google Twitter Vk Yandex Mail.ru

Booker, T - Soul Limbo (feat. The M Gs) - бас-таба, видео

Печатать
Просмотров: 235
Уроки эстрадного вокала в Санкт-Петербурге
booker t & the mg's-soul limbo

TablEdited by Jan Bjorklund, Finland  jani_bjorklund@yahoo.se>
You are welcome to request for tabs!
Fingering and positions as suggested by TablEdit, please use common sense!


Tuning : E A D G 	Time Signature: 4/4

   |               |               |               |
|------------------------------------------------------------------|
|------------------------------------------------------------------|
|-------------------------------------3-----------------0----------|
|------------------------------------------------------------------|

   |               |               |               |
|-------------------------------------------0----------------------|
|-------3-----------------0-----------------------------------2----|
|------------------------------------------------------------------|
|------------------------------------------------------------------|

   |               |               |               |
|------------------------------------------------------------------|
|---------------3---------------0----------------------------------|
|-------------------------------------------------3----------------|
|------------------------------------------------------------------|

   |               |               |               |
|-------------------------------------------------------0----------|
|---------------------3---------------0----------------------------|
|---0--------------------------------------------------------------|
|------------------------------------------------------------------|

   |               |               |               |
|------------------------------------------------------------------|
|---------2-----------------3---------------0----------------------|
|-------------------------------------------------------------3----|
|------------------------------------------------------------------|

   |               |               |               |
|------------------------------------------------------------------|
|---------------------------------3-----------------0--------------|
|---------------0--------------------------------------------------|
|------------------------------------------------------------------|

   |               |               |               |
|---0--------------------------------------------------------------|
|---------------------2-----------------3-----------------0--------|
|------------------------------------------------------------------|
|------------------------------------------------------------------|

   |               |               |               |
|------------------------------------------------------------------|
|---------------------------------------------3-----------------0--|
|---------3-----------------0--------------------------------------|
|------------------------------------------------------------------|

   |               |               |               |
|---------------0--------------------------------------------------|
|---------------------------------2-----------------3--------------|
|------------------------------------------------------------------|
|------------------------------------------------------------------|

   |               |               |               |
|------------------------------------------------------------------|
|-----0---------------------------------------------------3--------|
|---------------------3-----------------0--------------------------|
|------------------------------------------------------------------|

   |               |               |               |
|---------------------------0--------------------------------------|
|-----------0---------------------------------2-----------------3--|
|------------------------------------------------------------------|
|------------------------------------------------------------------|

   |               |               |               |
|------------------------------------------------------------------|
|-----------------0------------------------------------------------|
|-----------------------------------3---------------0--------------|
|------------------------------------------------------------------|

   |               |               |               |
|-----------------------------------------0------------------------|
|-----3-----------------0---------------------------------2--------|
|------------------------------------------------------------------|
|------------------------------------------------------------------|

   |               |               |               |
|------------------------------------------------------------------|
|-----------3-----------------0------------------------------------|
|-----------------------------------------------3------------------|
|------------------------------------------------------------------|

   |               |               |               |
|------------------------------------------------------------------|
|------------------------------------------------------------------|
|------------------------------------------------------------------|
|------------------------------------------------------------------|

   |               |               |               |
|------------------------------------------------------------------|
|------------------------------------------------------------------|
|-----------------------------------------------------------3------|
|------------------------------------------------------------------|

   |               |               |               |
|------------------------------------------------------------------|
|-----------------------------3-----------------0------------------|
|-----------0------------------------------------------------------|
|------------------------------------------------------------------|

   |               |               |               |
|-0----------------------------------------------------------------|
|-------------------2---------------3-----------------0------------|
|------------------------------------------------------------------|
|------------------------------------------------------------------|

   |               |               |               |
|------------------------------------------------------------------|
|-----------------------------------------3-----------------0------|
|-------3-----------------0----------------------------------------|
|------------------------------------------------------------------|

   |               |               |               |
|-------------0----------------------------------------------------|
|-------------------------------2---------------3------------------|
|------------------------------------------------------------------|
|------------------------------------------------------------------|

   |               |               |               |
|------------------------------------------------------------------|
|-0---------------------------------------------------3------------|
|-------------------3-----------------0----------------------------|
|------------------------------------------------------------------|

   |               |               |               |
|-------------------------0----------------------------------------|
|-------0-----------------------------------2-----------------3----|
|------------------------------------------------------------------|
|------------------------------------------------------------------|

   |               |               |               |
|------------------------------------------------------------------|
|-------------0----------------------------------------------------|
|-------------------------------3-----------------0----------------|
|------------------------------------------------------------------|

   |               |               |               |
|-------------------------------------0----------------------------|
|---3---------------0-----------------------------------2----------|
|------------------------------------------------------------------|
|------------------------------------------------------------------|

   |               |               |               |
|------------------------------------------------------------------|
|---------3---------------0----------------------------------------|
|-------------------------------------------3-----------------0----|
|------------------------------------------------------------------|

   |               |               |               |
|-------------------------------------------------0----------------|
|---------------3---------------0----------------------------------|
|------------------------------------------------------------------|
|------------------------------------------------------------------|

   |               |               |               |
|------------------------------------------------------------------|
|---2-----------------3-----------------0--------------------------|
|-------------------------------------------------------3----------|
|------------------------------------------------------------------|

   |               |               |               |
|-------------------------------------------------------------0----|
|---------------------------3-----------------0--------------------|
|---------0--------------------------------------------------------|
|------------------------------------------------------------------|

   |               |               |               |
|------------------------------------------------------------------|
|---------------2-----------------3-----------------0--------------|
|------------------------------------------------------------------|
|------------------------------------------------------------------|

   |               |               |               |
|------------------------------------------------------------------|
|------------------------------------------------------------------|
|---3--------------------------------------------------------------|
|------------------------------------------------------------------|


   |               |               |               |
|------------------------------------------------------------------|
|------------------------------------------------------------------|
|-----------------------------------------3-----------------0------|
|------------------------------------------------------------------|

   |               |               |               |
|-----------------------------------------------0------------------|
|-----------3-----------------0------------------------------------|
|------------------------------------------------------------------|
|------------------------------------------------------------------|

   |               |               |               |
|------------------------------------------------------------------|
|-2---------------3-----------------0------------------------------|
|-----------------------------------------------------3------------|
|------------------------------------------------------------------|

   |               |               |               |
|-----------------------------------------------------------0------|
|-----------------------3-----------------0------------------------|
|-------0----------------------------------------------------------|
|------------------------------------------------------------------|

   |               |               |               |
|------------------------------------------------------------------|
|-------------2---------------3-----------------0------------------|
|------------------------------------------------------------------|
|------------------------------------------------------------------|

   |               |               |               |
|------------------------------------------------------------------|
|-----------------------------------3-----------------0------------|
|-3-----------------0----------------------------------------------|
|------------------------------------------------------------------|

   |               |               |               |
|-------0----------------------------------------------------------|
|-------------------------2---------------3-----------------0------|
|------------------------------------------------------------------|
|------------------------------------------------------------------|

   |               |               |               |
|------------------------------------------------------------------|
|-------------------------------------------------3----------------|
|-------------3-----------------0----------------------------------|
|------------------------------------------------------------------|

   |               |               |               |
|-------------------0----------------------------------------------|
|-0-----------------------------------2-----------------3----------|
|------------------------------------------------------------------|
|------------------------------------------------------------------|

   |               |               |               |
|------------------------------------------------------------------|
|-------0-----------------------------------------------------3----|
|-------------------------3-----------------0----------------------|
|------------------------------------------------------------------|

   |               |               |               |
|-------------------------------0----------------------------------|
|-------------0-----------------------------------2----------------|
|------------------------------------------------------------------|
|------------------------------------------------------------------|




Created with TablEdit http://www.tabledit.com/

     
Добавлено: 24.07.2013
Другие материалы по этой песне:
  • Аккорды и текст

Страница создана 24.07.2013
http://primanota.ru/booker-t/soul-limbo-chords.htm
Привет, Гость.
Предлагаем пройти революционный курс по гитаре.
Подарок от PrimaNota.Ru, забирай!