PrimaNota.ru - самый крупный в мире бесплатный архив песенных текстов, аккордов, табулатур и нот


Booker, T - Scootin Boogie (feat. The M Gs) - бас-таба

Регистрация Запомнить меня
Войти через:  Facebook Google Twitter Vk Yandex Mail.ru

Booker, T - Scootin Boogie (feat. The M Gs) - бас-таба

Печатать
Просмотров: 213
booker t and the mg's-boot scootin' boogie

TablEdited by Jan Bjorklund, Finland  jani_bjorklund@yahoo.se>
You are welcome to request for tabs!
Fingering and positions as suggested by TablEdit, please use common sense!

TablEdited by Jan Bjorklund
Tuning : E A D G 	Time Signature: 4/4

   |               |               |               |
|------------------------------------------------------------------|
|------------------------------------------------------------------|
|---------------------------------2--------------------------------|
|-0-------------------------4--------------------------------------|

   |               |               |               |
|------------------------------------------------------------------|
|------------------------------------------------------------------|
|---------------------------4-----2---------------4----------------|
|-0----------------------------------------------------------------|

   |               |               |               |
|------------------------------------------------------------------|
|------------------------------------------------------------------|
|---------------------------------2--------------------------------|
|-0-------------------------4--------------------------------------|

   |               |               |               |
|------------------------------------------------------------------|
|------------------------------------------------------------------|
|---------------------------4-----2---------2-----4---------2------|
|-0----------------------------------------------------------------|

   |               |               |               |
|------------------------------------------------------------------|
|------------------------------------------------------------------|
|---------------------------4-----2--------------------------------|
|-0----------------------------------------------------------------|

   |               |               |               |
||-----------------------------------------------------------------|
|*2----------------------------------------------------------------|
|*--------------------------4-----2--------------------------------|
||-----------------------------------------------------------------|

   |               |               |               |
|------------------------------------------------------------------|
|-2----------------------------------------------------------------|
|---------------------------4-----2--------------------------------|
|------------------------------------------------------------------|

   |               |               |               |
|-----------------------------------------------------------------||
|-2---------------------------------------------------------------||
|---------------------------4-----2-------------------------------||
|-------------------------------------------0-----2---------4-----||

 >1|               |               |               |
|------------------------------------------------------------------|
|---------------------------------2--------------------------------|
|-0-------------------------0--------------------------------------|
|------------------------------------------------------------------|

   |               |               |               |
|------------------------------------------------------------------|
|------------------------------------------------------------------|
|-0-------------------------0-----0--------------------------------|
|-------------------------------------------------3----------------|

   |               |               |               |
|------------------------------------------------------------------|
|------------------------------------------------------------------|
|---------------------------------2--------------------------------|
|-0-------------------------0--------------------------------------|

   |               |               |               |
|------------------------------------------------------------------|
|------------------------------------------------------------------|
|-------------------------------------------2-----4----------------|
|-0-------------------------3-----4-------------------------4------|

   |               |               |               |
|------------------------------------------------------------------|
|------------------------------------------------------------------|
|-2----------------------------------------------------------------|
|---------------------------4-----2--------------------------------|

   |               |               |               |
|------------------------------------------------------------------|
|------------------------------------------------------------------|
|-2----------------------------------------------------------------|
|---------------------------4-----2---------2-----4---------2------|

   |               |               |               |
|------------------------------------------------------------------|
|------------------------------------------------------------------|
|-2----------------------------------------------------------------|
|---------------------------4-----2--------------------------------|

   |               |               |               |
|------------------------------------------------------------------|
|------------------------------------------------------------------|
|-2-------------------------------2---------------0----------------|
|---------------------------2---------------2----------------------|

   |               |               |               |
|------------------------------------------------------------------|
|------------------------------------------------------------------|
|---------------------------------2--------------------------------|
|-0----------------------------------------------------------------|

   |               |               |               |
|------------------------------------------------------------------|
|------------------------------------------------------------------|
|---------------------------4-----2---------4-----2---------4------|
|-0----------------------------------------------------------------|

   |               |               |               |
|-----------------------------------------------------------------||
|-2---------------------------------------------------------------*|
|---------------------------4-----2-------------------------------*|
|-----------------------------------------------------------------||

 >2|               |               |               |
|------------------------------------------------------------------|
|---------------------------------2--------------------------------|
|-0-------------------------0--------------------------------------|
|------------------------------------------------------------------|

   |               |               |               |
|------------------------------------------------------------------|
|------------------------------------------------------------------|
|-0-------------------------0-----0--------------------------------|
|------------------------------------------------------------------|

   |               |               |               |
|------------------------------------------------------------------|
|------------------------------------------------------------------|
|---------------------------4-----2--------------------------------|
|-0----------------------------------------------------------------|

   |               |               |               |
|------------------------------------------------------------------|
|------------------------------------------------------------------|
|---------------------------4-----2---------------0---------1------|
|-0-----------------------------------------4----------------------|

   |               |               |               |
|------------------------------------------------------------------|
|------------------------------------------------------------------|
|---------------------------4-----2-------------------------4------|
|-0----------------------------------------------------------------|

   |               |               |               |
|------------------------------------------------------------------|
|------------------------------------------------------------------|
|------------------------------------------------------------------|
|-0---------0-----2---------2-----3---------3-----4---------4------|

   |               |               |               |
|------------------------------------------------------------------|
|---------------------------------2---------------4---------2------|
|-0---------------4------------------------------------------------|
|------------------------------------------------------------------|

   |               |               |               |
|------------------------------------------------------------------|
|---------------------------------2---------2-----4---------2------|
|-0---------0-----3---------4--------------------------------------|
|------------------------------------------------------------------|

   |               |               |               |
|------------------------------------------------------------------|
|------------------------------------------------------------------|
|---------------------------------2---------2-----4---------2------|
|-0---------0-----3---------4--------------------------------------|

   |               |               |               |
|------------------------------------------------------------------|
|------------------------------------------------------------------|
|---------------------------------2---------2-----4---------2------|
|-0---------0-----3---------4--------------------------------------|

   |               |               |               |
|------------------------------------------------------------------|
|---------------------------------2---------------4----------------|
|-0---------------3---------4--------------------------------------|
|------------------------------------------------------------------|

   |               |               |               |
|------------------------------------------------------------------|
|---------------------------------2---------2-----4---------2------|
|-0---------------3---------4--------------------------------------|
|------------------------------------------------------------------|

   |               |               |               |
|------------------------------------------------------------------|
|------------------------------------------------------------------|
|---------------------------------2---------2-----4---------2------|
|-0---------------3---------4--------------------------------------|

   |               |               |               |
|------------------------------------------------------------------|
|------------------------------------------------------------------|
|---------------------------------2---------2-----4----------------|
|-0---------------3---------4-------------------------------4------|

   |               |               |               |
||------------------------------------------------1----------------|
|*----------------0---------1-----4-------------------------4------|
|*2----------------------------------------------------------------|
||-----------------------------------------------------------------|

   |               |               |               |
|------------------------------------------------------------------|
|-----------------0---------1-----4--------------------------------|
|-2---------2-------------------------------------0----------------|
|-------------------------------------------2----------------------|

   |               |               |               |
|------------------------------------------------------------------|
|------------------------------------------------------------------|
|---------------------------------2---------2-----4---------2------|
|-0---------0-----3---------4--------------------------------------|

   |               |               |               |
|-----------------------------------------------------------------||
|-----------------------------------------------------------------*|
|---------------------------------2---------2---------------------*|
|-0---------0-----3---------4---------------------3---------4-----||

   |               |               |               |
||-----------------------------------------------------------------|
|*-----------------------------------------------------------------|
|*--------------------------------2---------2-----4---------2------|
||0---------0-----3---------4--------------------------------------|

   |               |               |               |
|-----------------------------------------------------------------||
|-----------------------------------------------------------------*|
|---------------------------------2---------2-----4---------2-----*|
|-0---------0-----3---------4-------------------------------------||

   |               |               |               |
|------------------------------------------------------------------|
|---------------------------------2---------2-----4---------2------|
|-0---------0-----3---------4--------------------------------------|
|------------------------------------------------------------------|

   |               |               |               |
|------------------------------------------------------------------|
|---------------------------------2---------2-----4---------2------|
|-0---------0-----3---------4--------------------------------------|
|------------------------------------------------------------------|

   |               |               |               |
|------------------------------------------------------------------|
|------------------------------------------------------------------|
|---------------------------------2---------2-----4---------2------|
|-0---------0-----3---------4--------------------------------------|

   |               |               |               |
|------------------------------------------------------------------|
|------------------------------------------------------------------|
|---------------------------------2---------2-----4----------------|
|-0---------0-----3---------4-------------------------------4------|

   |               |               |               |
|-------------------------------------------------1----------------|
|-----------------0---------1-----4---------4---------------4------|
|-2---------2------------------------------------------------------|
|------------------------------------------------------------------|

   |               |               |               |
|-------------------------------------------------1----------------|
|-----------------0---------1-----4---------4---------------4------|
|-2---------2------------------------------------------------------|
|------------------------------------------------------------------|

   |               |               |               |
|------------------------------------------------------------------|
|------------------------------------------------------------------|
|---------------------------------2---------2-----4---------2------|
|-0---------0-----3---------4--------------------------------------|

   |               |               |               |
|------------------------------------------------------------------|
|------------------------------------------------------------------|
|---------------------------------2---------2----------------------|
|-0---------0-----3---------4---------------------3---------4------|

   |               |               |               |
|------------------------------------------------------------------|
|-2----------------------------------------------------------------|
|---------------------------4-----2--------------------------------|
|------------------------------------------------------------------|

   |               |               |               |
|------------------------------------------------------------------|
|---------------------------------2--------------------------------|
|-0-------------------------0--------------------------------------|
|------------------------------------------------------------------|

   |               |               |               |
|------------------------------------------------------------------|
|------------------------------------------------------------------|
|-0-------------------------0-----0---------------0----------------|
|------------------------------------------------------------------|

   |               |               |               |
|------------------------------------------------------------------|
|------------------------------------------------------------------|
|---------------------------4-----2--------------------------------|
|-0----------------------------------------------------------------|

   |               |               |               |
|------------------------------------------------------------------|
|------------------------------------------------------------------|
|-------------------------------------------------0---------1------|
|-0-------------------------0-----0---------0----------------------|

   |               |               |               |
|------------------------------------------------------------------|
|------------------------------------------------------------------|
|------------------------------------------------------------------|
|-0---------0-----2---------2-----3---------3-----4---------4------|

   |               |               |               |
|------------------------------------------------------------------|
|------------------------------------------------------------------|
|---------------------------------0---------0-----1---------1------|
|-0---------0-----4---------4--------------------------------------|

   |               |               |               |
|-------------------------------------------------1----------------|
|-----------------0---------1-----4---------4---------------4------|
|-2---------2------------------------------------------------------|
|------------------------------------------------------------------|

   |               |               |               |
|------------------------------------------------------------------|
|------------------------------------------------------------------|
|-2----------------------------------------------------------------|
|------------------------------------------------------------------|

   |               |               |               |
|------------------------------------------------------------------|
|------------------------------------------------------------------|
|---------------------------------2---------------4---------2------|
|-0---------------3---------4--------------------------------------|

   |               |               |               |
|------------------------------------------------------------------|
|------------------------------------------------------------------|
|-0---------------3---------4-----0--------------------------------|
|-------------------------------------------------3----------------|

   |               |               |               |
|------------------------------------------------------------------|
|------------------------------------------------------------------|
|------------------------------------------------------------------|
|-0----------------------------------------------------------------|



Created with TablEdit http://www.tabledit.com/

     
Добавлено: 09.10.2013
Вам также может быть интересно:
Другие материалы по этой песне:
  • Аккорды и текст

Страница создана 09.10.2013
http://primanota.ru/booker-t/scootin-boogie-chords.htm
Привет, Гость.
Предлагаем пройти революционный курс по гитаре.
Подарок от PrimaNota.Ru, забирай!