PrimaNota.ru - самый крупный в мире бесплатный архив песенных текстов, аккордов, табулатур и нот


Booker, T - Pick Up The Pieces (feat. The M Gs) - бас-таба, видео

Регистрация Запомнить меня
Войти через:  Facebook Google Twitter Vk Yandex Mail.ru

Booker, T - Pick Up The Pieces (feat. The M Gs) - бас-таба, видео

Печатать
Просмотров: 287
booker t.& the mg's-pick_up_the_pieces

TablEdited by Jan Bjorklund
Tuning : E A D G 	Time Signature: 4/4

   |               |               |               |
|------------------------------------------------------------------|
|------------------------------------------------------------------|
|-3----------------------------------------------------------------|
|------------------------------------------------------------------|

   |               |               |               |
|-5----------------------------------------------------------------|
|------------------------------------------------------------------|
|------------------------------------------------------------------|
|------------------------------------------------------------------|

   |               |               |               |
|-------------------------5----------------------------------------|
|------------------------------------------------------------------|
|-3----------------------------------------------------------------|
|------------------------------------------------------------------|

   |               |               |               |
|-5----------------------------------------------------------------|
|------------------------------------------------------------------|
|------------------------------------------------------------------|
|------------------------------------------------------------------|

   |               |               |               |
|------------------------------------------------------------------|
|-----------------------3-----1-----------3------------------------|
|------------------------------------------------------------------|
|-1----------------------------------------------------------------|

   |               |               |               |
|------------------------------------------------------------------|
|-------------------------3---1------------------------------------|
|------------------------------------------------------------------|
|-1----------------------------------------------------------------|

   |               |               |               |
|------------------------------------------------------------------|
|-------------------------3-1-------------3------------------------|
|------------------------------------------------------------------|
|-1----------------------------------------------------------------|

   |               |               |               |
|------------------------------------------------------------------|
|-------------------------3---1------------------------------------|
|------------------------------------------------------------------|
|-1----------------------------------------------------------------|

   |               |               |               |
|------------------------------------------------------------------|
|-------------------------3---1-----------3------------------------|
|------------------------------------------------------------------|
|-1----------------------------------------------------------------|

   |               |               |               |
|------------------------------------------------------------------|
|-------------------------3---1------------------------------------|
|------------------------------------------------------------------|
|-1----------------------------------------------------------------|

   |               |               |               |
|------------------------------------------------------------------|
|-------------------------3---1-----------3------------------------|
|------------------------------------------------------------------|
|-1----------------------------------------------------------------|

   |               |               |               |
|------------------------------------------------------------------|
|-------------------------3---1------------------------------------|
|------------------------------------------------------------------|
|-1----------------------------------------------------------------|

   |               |               |               |
|-----------------------3---1-------------3------------------------|
|------------------------------------------------------------------|
|-1----------------------------------------------------------------|
|------------------------------------------------------------------|

   |               |               |               |
|-------------------------3-1--------------------------------------|
|------------------------------------------------------------------|
|-1----------------------------------------------------------------|
|------------------------------------------------------------------|

   |               |               |               |
|------------------------------------------------------------------|
|-----------------------3---1-------------3------------------------|
|------------------------------------------------------------------|
|-1----------------------------------------------------------------|

   |               |               |               |
|------------------------------------------------------------------|
|-------------------------3---1------------------------------------|
|------------------------------------------------------------------|
|-1----------------------------------------------------------------|

   |               |               |               |
|------------------------------------------------------------------|
|-------------------------3---1-----------3------------------------|
|------------------------------------------------------------------|
|-1----------------------------------------------------------------|

   |               |               |               |
|------------------------------------------------------------------|
|-------------------------3---1------------------------------------|
|------------------------------------------------------------------|
|-1----------------------------------------------------------------|

   |               |               |               |
|------------------------------------------------------------------|
|-------------------------3---1-----------3------------------------|
|------------------------------------------------------------------|
|-1----------------------------------------------------------------|

   |               |               |               |
|------------------------------------------------------------------|
|-------------------------3---1------------------------------------|
|------------------------------------------------------------------|
|-1----------------------------------------------------------------|

   |               |               |               |
|------------------------------------------------------------------|
|-------------------------3-1-------------3------------------------|
|------------------------------------------------------------------|
|-1-------------------------------------------------------------1--|

   |               |               |               |
|------------------------------------------------------------------|
|-------------------------3---1------------------------------------|
|------------------------------------------------------------------|
|------------------------------------------------------------------|

   |               |               |               |
|------------------------------------------------------------------|
|-------------------------3---1-----------3------------------------|
|------------------------------------------------------------------|
|-1-------------------------------------------------------------1--|

   |               |               |               |
|------------------------------------------------------------------|
|-------------------------3---1------------------------------------|
|------------------------------------------------------------------|
|------------------------------------------------------------------|

   |               |               |               |
|------------------------------------------------------------------|
|-------------------------3-1-------------3------------------------|
|------------------------------------------------------------------|
|-1----------------------------------------------------------------|

   |               |               |               |
|------------------------------------------------------------------|
|-----------------------3---1--------------------------------------|
|------------------------------------------------------------------|
|-1----------------------------------------------------------------|

   |               |               |               |
|-------------------------3---1-----------3------------------------|
|------------------------------------------------------------------|
|-1-------------------------------------------------------1--------|
|------------------------------------------------------------------|

   |               |               |               |
|-------------------------3---1------------------------------------|
|------------------------------------------------------------------|
|------------------------------------------------------------------|
|------------------------------------------------------------------|

   |               |               |               |
|------------------------------------------------------------------|
|-------------------------3---1---------3--------------------------|
|------------------------------------------------------------------|
|-1----------------------------------------------------------------|

   |               |               |               |
|------------------------------------------------------------------|
|-----------------------3---1--------------------------------------|
|------------------------------------------------------------------|
|-1----------------------------------------------------------------|

   |               |               |               |
|------------------------------------------------------------------|
|-------------------------3---1-----------3------------------------|
|------------------------------------------------------------------|
|-1----------------------------------------------------------------|

   |               |               |               |
|------------------------------------------------------------------|
|-----------------------3---1--------------------------------------|
|---------------------------------------3-----------------1--------|
|-1----------------------------------------------------------------|

   |               |               |               |
|------------------------------------------------------------------|
|------------------------------------------------------------------|
|-1-----------1-----------1----------------------------------------|
|------------------------------------------------------------------|

   |               |               |               |
|------------------------------------------------------------------|
|------------------------------------------------------------------|
|-1-----------1-----------1-------------------------------------1--|
|------------------------------------------------------------------|

   |               |               |               |
|------------------------------------------------------------------|
|------------------------------------------------------------------|
|-------------1-----------1-------------------------------------1--|
|------------------------------------------------------------------|

   |               |               |               |
|------------------------------------------------------------------|
|------------------------------------------------------------------|
|-------------1---------1-------------------------3----------------|
|------------------------------------------------------------------|

   |               |               |               |
||-----------------------------------------------------------------|
|*-----------------------------------------------------------------|
|*-----------------------------------------------------------------|
||-----------------------------------------------------------------|

   |               |               |               |
|-----------------------------------------------------------------||
|-----------------------------------------------------------------*|
|-----------------------------------------------------------------*|
|-----------------------------------------------------------------||

   |               |               |               |
|---------------6---7----------------------------------------------|
|-----------------------8---6-----------8--------------------------|
|------------------------------------------------------------------|
|-6-------------------------------------------------------------6--|

   |               |               |               |
|-------------------------3---1------------------------------------|
|------------------------------------------------------------------|
|------------------------------------------------------------------|
|------------------------------------------------------------------|

   |               |               |               |
|---------------6-----7--------------------------------------------|
|-------------------------8---6-----------8------------------------|
|------------------------------------------------------------------|
|-6----------------------------------------------------------------|

   |               |               |               |
|-----------------------3---1--------------------------------------|
|------------------------------------------------------------------|
|-1---------------------------------------------------1------------|
|------------------------------------------------------------------|

   |               |               |               |
|-----------------6---7--------------------------------------------|
|-------------------------8---6-----------8------------------------|
|------------------------------------------------------------------|
|------------------------------------------------------------------|

   |               |               |               |
|-----------------------3---1---------1---1-----------1------------|
|------------------------------------------------------------------|
|-1----------------------------------------------------------------|
|------------------------------------------------------------------|

   |               |               |               |
|-----------------6---7--------------------------------------------|
|-------------------------8---6-----------8------------------------|
|------------------------------------------------------------------|
|-6-------------------------------------------------------------6--|

   |               |               |               |
|-------------------------3-1--------------------------------------|
|------------------------------------------------------------------|
|------------------------------------------------------------------|
|------------------------------------------------------------------|

   |               |               |               |
|---------------6-----7--------------------------------------------|
|-------------------------8---6---------8--------------------------|
|------------------------------------------------------------------|
|-6-------------------------------------------------------6--------|

   |               |               |               |
|-------------------------3---1---------------------1--------------|
|------------------------------------------------------------------|
|---------------------------------------------------------------1--|
|------------------------------------------------------------------|

   |               |               |               |
|-----------------6---7--------------------------------------------|
|-------------------------8---6---------8--------------------------|
|------------------------------------------------------------------|
|------------------------------------------------------------------|

   |               |               |               |
|-------------------------3---1------------------------------------|
|------------------------------------------------------------------|
|-1----------------------------------------------------------------|
|---------------------------------------------------------------1--|

   |               |               |               |
|------------------------------------------------------------------|
|-------------------------3---1---------3--------------------------|
|------------------------------------------------------------------|
|---------------------------------------------------------------1--|

   |               |               |               |
|------------------------------------------------------------------|
|-------------------------3-1--------------------------------------|
|------------------------------------------------------------------|
|------------------------------------------------------------------|

   |               |               |               |
|------------------------------------------------------------------|
|-------------------------3-1-------------3------------------------|
|------------------------------------------------------------------|
|-1----------------------------------------------------------------|

   |               |               |               |
|------------------------------------------------------------------|
|-----------------------3-----1------------------------------------|
|------------------------------------------------------------------|
|-1----------------------------------------------------------------|

   |               |               |               |
|------------------------------------------------------------------|
|-------------------------3-1-------------3------------------------|
|------------------------------------------------------------------|
|-1----------------------------------------------------------------|

   |               |               |               |
|------------------------------------------------------------------|
|-------------------------3---1------------------------------------|
|------------------------------------------------------------------|
|-1-------------------------------------------------------------1--|

   |               |               |               |
|------------------------------------------------------------------|
|-----------------------3-----1-----------3------------------------|
|------------------------------------------------------------------|
|---------------------------------------------------------------1--|

   |               |               |               |
|------------------------------------------------------------------|
|-------------------------3---1------------------------------------|
|------------------------------------------------------------------|
|------------------------------------------------------------------|

   |               |               |               |
|------------------------------------------------------------------|
|-------------------------3---1-----------3------------------------|
|------------------------------------------------------------------|
|-1----------------------------------------------------------------|

   |               |               |               |
|------------------------------------------------------------------|
|-------------------------3---1------------------------------------|
|------------------------------------------------------------------|
|-1-------------------------------------------------------------1--|

   |               |               |               |
|------------------------------------------------------------------|
|-------------------------3---1---------3--------------------------|
|------------------------------------------------------------------|
|---------------------------------------------------------------1--|

   |               |               |               |
|------------------------------------------------------------------|
|-----------------------3---1---------1----------------------------|
|---------------------------------------3-------------2------------|
|------------------------------------------------------------------|

   |               |               |               |
|------------------------------------------------------------------|
|------------------------------------------------------------------|
|-1-----------1---------1------------------------------------------|
|------------------------------------------------------------------|

   |               |               |               |
|------------------------------------------------------------------|
|------------------------------------------------------------------|
|-1-----------1-----------1----------------------------------------|
|------------------------------------------------------------------|

   |               |               |               |
|------------------------------------------------------------------|
|------------------------------------------------------------------|
|-1-----------1---------1---------------------------------------1--|
|------------------------------------------------------------------|

   |               |               |               |
|------------------------------------------------------------------|
|------------------------------------------------------------------|
|-------------1-----------1-------------------------------------1--|
|-------------------------------------------------1---1------------|

   |               |               |               |
|------------------------------------------------------------------|
|------------------------------------------------------------------|
|-------------1---------1------------------------------------------|
|------------------------------------------------------------------|

   |               |               |               |
|------------------------------------------------------------------|
|------------------------------------------------------------------|
|-1-----------1---------1------------------------------------------|
|------------------------------------------------------------------|

   |               |               |               |
|------------------------------------------------------------------|
|------------------------------------------------------------------|
|-1-----------1---------1---------------------------------------1--|
|------------------------------------------------------------------|

   |               |               |               |
|------------------------------------------------------------------|
|------------------------------------------------------------------|
|-------------1---------1-----------------------3------------------|
|------------------------------------------------------------------|

   |               |               |               |
|------------------------------------------------------------------|
|------------------------------------------------------------------|
|------------------------------------------------------------------|
|------------------------------------------------------------------|

   |               |               |               |
|------------------------------------------------------------------|
|-------------------------3---1-----------3------------------------|
|------------------------------------------------------------------|
|-1-------------------------------------------------------------1--|

   |               |               |               |
|------------------------------------------------------------------|
|-------------------------3---1------------------------------------|
|------------------------------------------------------------------|
|---------------------------------------------------------------1--|

   |               |               |               |
|------------------------------------------------------------------|
|-------------------------3-1-----------3--------------------------|
|------------------------------------------------------------------|
|---------------------------------------------------------------1--|

   |               |               |               |
|------------------------------------------------------------------|
|-------------------------3---1------------------------------------|
|------------------------------------------------------------------|
|---------------------------------------------------------------1--|

   |               |               |               |
|------------------------------------------------------------------|
|-----------------------3-----1---------3--------------------------|
|------------------------------------------------------------------|
|------------------------------------------------------------------|

   |               |               |               |
|------------------------------------------------------------------|
|-----------------------3---1--------------------------------------|
|------------------------------------------------------------------|
|-1-------------------------------------------------------------1--|

   |               |               |               |
|------------------------------------------------------------------|
|-----------------------3---1-----------3--------------------------|
|------------------------------------------------------------------|
|---------------------------------------------------------------1--|

   |               |               |               |
|------------------------------------------------------------------|
|-------------------------3---1------------------------------------|
|------------------------------------------------------------------|
|------------------------------------------------------------------|

   |               |               |               |
|-------------------------------------------------------------1----|
|-------------------------3---1-----------3------------------------|
|------------------------------------------------------------------|
|-1----------------------------------------------------------------|

   |               |               |               |
|------------------------------------------------------------------|
|---------3-------2---3--------------------------------------------|
|------------------------------------------------------------------|
|-----------------------------4-----------2-------0---1------------|



Created with TablEdit http://www.tabledit.com/

     
Добавлено: 24.06.2013
Другие материалы по этой песне:
  • Аккорды и текст

Страница создана 24.06.2013
http://primanota.ru/booker-t/pick-up-the-pieces-chords.htm
Привет, Гость.
Предлагаем пройти революционный курс по гитаре.
Подарок от PrimaNota.Ru, забирай!